  0
SECTION
  2
HEADER
  9
$ACADVER
  1
AC1015
  9
$ACADMAINTVER
 70
     6
  9
$DWGCODEPAGE
  3
ANSI_1252
  9
$INSBASE
 10
0.0
 20
0.0
 30
0.0
  9
$EXTMIN
 10
-19.0
 20
0.0
 30
0.0
  9
$EXTMAX
 10
19.0
 20
26.0
 30
0.0
  9
$LIMMIN
 10
0.0
 20
0.0
  9
$LIMMAX
 10
420.0
 20
297.0
  9
$ORTHOMODE
 70
     0
  9
$REGENMODE
 70
     1
  9
$FILLMODE
 70
     1
  9
$QTEXTMODE
 70
     0
  9
$MIRRTEXT
 70
     1
  9
$LTSCALE
 40
1.0
  9
$ATTMODE
 70
     1
  9
$TEXTSIZE
 40
3.5
  9
$TRACEWID
 40
1.0
  9
$TEXTSTYLE
  7
Standard
  9
$CLAYER
  8
0
  9
$CELTYPE
  6
ByLayer
  9
$CECOLOR
 62
   256
  9
$CELTSCALE
 40
1.0
  9
$DISPSILH
 70
     0
  9
$DIMSCALE
 40
1.0
  9
$DIMASZ
 40
3.302
  9
$DIMEXO
 40
1.0
  9
$DIMDLI
 40
3.75
  9
$DIMRND
 40
0.0
  9
$DIMDLE
 40
0.0
  9
$DIMEXE
 40
1.0
  9
$DIMTP
 40
0.0
  9
$DIMTM
 40
0.0
  9
$DIMTXT
 40
3.5
  9
$DIMCEN
 40
2.5
  9
$DIMTSZ
 40
0.0
  9
$DIMTOL
 70
     0
  9
$DIMLIM
 70
     0
  9
$DIMTIH
 70
     1
  9
$DIMTOH
 70
     1
  9
$DIMSE1
 70
     0
  9
$DIMSE2
 70
     0
  9
$DIMTAD
 70
     1
  9
$DIMZIN
 70
     1
  9
$DIMBLK
  1

  9
$DIMASO
 70
     1
  9
$DIMSHO
 70
     1
  9
$DIMPOST
  1

  9
$DIMAPOST
  1

  9
$DIMALT
 70
     0
  9
$DIMALTD
 70
     3
  9
$DIMALTF
 40
0.0393700787
  9
$DIMLFAC
 40
1.0
  9
$DIMTOFL
 70
     1
  9
$DIMTVP
 40
0.0
  9
$DIMTIX
 70
     0
  9
$DIMSOXD
 70
     0
  9
$DIMSAH
 70
     0
  9
$DIMBLK1
  1

  9
$DIMBLK2
  1

  9
$DIMSTYLE
  2
ISO-25
  9
$DIMCLRD
 70
     0
  9
$DIMCLRE
 70
     0
  9
$DIMCLRT
 70
     0
  9
$DIMTFAC
 40
1.0
  9
$DIMGAP
 40
1.524
  9
$DIMJUST
 70
     0
  9
$DIMSD1
 70
     0
  9
$DIMSD2
 70
     0
  9
$DIMTOLJ
 70
     0
  9
$DIMTZIN
 70
     1
  9
$DIMALTZ
 70
     0
  9
$DIMALTTZ
 70
     0
  9
$DIMUPT
 70
     0
  9
$DIMDEC
 70
     2
  9
$DIMTDEC
 70
     2
  9
$DIMALTU
 70
     2
  9
$DIMALTTD
 70
     3
  9
$DIMTXSTY
  7
Standard
  9
$DIMAUNIT
 70
     0
  9
$DIMADEC
 70
     2
  9
$DIMALTRND
 40
0.0
  9
$DIMAZIN
 70
     0
  9
$DIMDSEP
 70
    44
  9
$DIMATFIT
 70
     3
  9
$DIMFRAC
 70
     0
  9
$DIMLDRBLK
  1

  9
$DIMLUNIT
 70
     2
  9
$DIMLWD
 70
    -2
  9
$DIMLWE
 70
    -2
  9
$DIMTMOVE
 70
     0
  9
$LUNITS
 70
     2
  9
$LUPREC
 70
     2
  9
$SKETCHINC
 40
1.0
  9
$FILLETRAD
 40
10.0
  9
$AUNITS
 70
     0
  9
$AUPREC
 70
     2
  9
$MENU
  1
.
  9
$ELEVATION
 40
0.0
  9
$PELEVATION
 40
0.0
  9
$THICKNESS
 40
0.0
  9
$LIMCHECK
 70
     0
  9
$CHAMFERA
 40
0.0
  9
$CHAMFERB
 40
0.0
  9
$CHAMFERC
 40
0.0
  9
$CHAMFERD
 40
0.0
  9
$SKPOLY
 70
     0
  9
$TDCREATE
 40
2458862.404693634
  9
$TDUCREATE
 40
2458862.404693634
  9
$TDUPDATE
 40
2458862.404735463
  9
$TDUUPDATE
 40
2458862.404735463
  9
$TDINDWG
 40
0.0000000116
  9
$TDUSRTIMER
 40
0.0000000116
  9
$USRTIMER
 70
     1
  9
$ANGBASE
 50
0.0
  9
$ANGDIR
 70
     0
  9
$PDMODE
 70
     0
  9
$PDSIZE
 40
-1.0
  9
$PLINEWID
 40
0.0
  9
$SPLFRAME
 70
     0
  9
$SPLINETYPE
 70
     6
  9
$SPLINESEGS
 70
     8
  9
$HANDSEED
  5
1BA
  9
$SURFTAB1
 70
     6
  9
$SURFTAB2
 70
     6
  9
$SURFTYPE
 70
     6
  9
$SURFU
 70
     6
  9
$SURFV
 70
     6
  9
$UCSBASE
  2

  9
$UCSNAME
  2

  9
$UCSORG
 10
0.0
 20
0.0
 30
0.0
  9
$UCSXDIR
 10
1.0
 20
0.0
 30
0.0
  9
$UCSYDIR
 10
0.0
 20
1.0
 30
0.0
  9
$UCSORTHOREF
  2

  9
$UCSORTHOVIEW
 70
     0
  9
$UCSORGTOP
 10
0.0
 20
0.0
 30
0.0
  9
$UCSORGBOTTOM
 10
0.0
 20
0.0
 30
0.0
  9
$UCSORGLEFT
 10
0.0
 20
0.0
 30
0.0
  9
$UCSORGRIGHT
 10
0.0
 20
0.0
 30
0.0
  9
$UCSORGFRONT
 10
0.0
 20
0.0
 30
0.0
  9
$UCSORGBACK
 10
0.0
 20
0.0
 30
0.0
  9
$PUCSBASE
  2

  9
$PUCSNAME
  2

  9
$PUCSORG
 10
0.0
 20
0.0
 30
0.0
  9
$PUCSXDIR
 10
1.0
 20
0.0
 30
0.0
  9
$PUCSYDIR
 10
0.0
 20
1.0
 30
0.0
  9
$PUCSORTHOREF
  2

  9
$PUCSORTHOVIEW
 70
     0
  9
$PUCSORGTOP
 10
0.0
 20
0.0
 30
0.0
  9
$PUCSORGBOTTOM
 10
0.0
 20
0.0
 30
0.0
  9
$PUCSORGLEFT
 10
0.0
 20
0.0
 30
0.0
  9
$PUCSORGRIGHT
 10
0.0
 20
0.0
 30
0.0
  9
$PUCSORGFRONT
 10
0.0
 20
0.0
 30
0.0
  9
$PUCSORGBACK
 10
0.0
 20
0.0
 30
0.0
  9
$USERI1
 70
     0
  9
$USERI2
 70
     0
  9
$USERI3
 70
     0
  9
$USERI4
 70
     0
  9
$USERI5
 70
     0
  9
$USERR1
 40
0.0
  9
$USERR2
 40
0.0
  9
$USERR3
 40
0.0
  9
$USERR4
 40
0.0
  9
$USERR5
 40
0.0
  9
$WORLDVIEW
 70
     1
  9
$SHADEDGE
 70
     3
  9
$SHADEDIF
 70
    70
  9
$TILEMODE
 70
     1
  9
$MAXACTVP
 70
    64
  9
$PINSBASE
 10
0.0
 20
0.0
 30
0.0
  9
$PLIMCHECK
 70
     0
  9
$PEXTMIN
 10
-19.0
 20
-19.0
 30
0.0
  9
$PEXTMAX
 10
19.0
 20
19.0
 30
0.0
  9
$PLIMMIN
 10
-22.8974358974
 20
-20.4615384615
  9
$PLIMMAX
 10
34.9794871795
 20
20.4615384615
  9
$UNITMODE
 70
     0
  9
$VISRETAIN
 70
     1
  9
$PLINEGEN
 70
     0
  9
$PSLTSCALE
 70
     1
  9
$TREEDEPTH
 70
  3020
  9
$CMLSTYLE
  2
Standard
  9
$CMLJUST
 70
     0
  9
$CMLSCALE
 40
20.0
  9
$PROXYGRAPHICS
 70
     1
  9
$MEASUREMENT
 70
     1
  9
$CELWEIGHT
370
    -1
  9
$ENDCAPS
280
     0
  9
$JOINSTYLE
280
     0
  9
$LWDISPLAY
290
     1
  9
$INSUNITS
 70
     4
  9
$HYPERLINKBASE
  1

  9
$STYLESHEET
  1

  9
$XEDIT
290
     1
  9
$CEPSNTYPE
380
     0
  9
$PSTYLEMODE
290
     1
  9
$FINGERPRINTGUID
  2
{f1e2a897-e96a-4434-b225-5ed3a9a99846}
  9
$VERSIONGUID
  2
{FAEB1C32-E019-11D5-929B-00C0DF256EC4}
  9
$EXTNAMES
290
     1
  9
$PSVPSCALE
 40
0.0
  9
$OLESTARTUP
290
     0
  0
ENDSEC
  0
SECTION
  2
CLASSES
  0
CLASS
  1
ACDBDICTIONARYWDFLT
  2
AcDbDictionaryWithDefault
  3
ObjectDBX Classes
 90
        0
280
     0
281
     0
  0
CLASS
  1
VISUALSTYLE
  2
AcDbVisualStyle
  3
ObjectDBX Classes
 90
     4095
280
     0
281
     0
  0
CLASS
  1
MATERIAL
  2
AcDbMaterial
  3
ObjectDBX Classes
 90
     1153
280
     0
281
     0
  0
CLASS
  1
SCALE
  2
AcDbScale
  3
ObjectDBX Classes
 90
     1153
280
     0
281
     0
  0
CLASS
  1
TABLESTYLE
  2
AcDbTableStyle
  3
ObjectDBX Classes
 90
     4095
280
     0
281
     0
  0
CLASS
  1
MLEADERSTYLE
  2
AcDbMLeaderStyle
  3
ACDB_MLEADERSTYLE_CLASS
 90
     4095
280
     0
281
     0
  0
CLASS
  1
SUN
  2
AcDbSun
  3
SCENEOE
 90
     1153
280
     0
281
     0
  0
CLASS
  1
ACDBPLACEHOLDER
  2
AcDbPlaceHolder
  3
ObjectDBX Classes
 90
        0
280
     0
281
     0
  0
CLASS
  1
LAYOUT
  2
AcDbLayout
  3
ObjectDBX Classes
 90
        0
280
     0
281
     0
  0
ENDSEC
  0
SECTION
  2
TABLES
  0
TABLE
  2
VPORT
  5
8
330
0
100
AcDbSymbolTable
 70
     1
  0
VPORT
  5
29
330
8
100
AcDbSymbolTableRecord
100
AcDbViewportTableRecord
  2
*Active
 70
     0
 10
0.0
 20
0.0
 11
1.0
 21
1.0
 12
0.0
 22
13.0
 13
0.0
 23
0.0
 14
10.0
 24
10.0
 15
10.0
 25
10.0
 16
0.0
 26
0.0
 36
1.0
 17
0.0
 27
0.0
 37
0.0
 40
26.52
 41
1.4615384615
 42
50.0
 43
0.0
 44
0.0
 50
0.0
 51
0.0
 71
     0
 72
   100
 73
     1
 74
     3
 75
     0
 76
     0
 77
     0
 78
     0
281
     0
 65
     1
110
0.0
120
0.0
130
0.0
111
1.0
121
0.0
131
0.0
112
0.0
122
1.0
132
0.0
 79
     0
146
0.0
  0
ENDTAB
  0
TABLE
  2
LTYPE
  5
5
330
0
100
AcDbSymbolTable
 70
     6
  0
LTYPE
  5
14
330
5
100
AcDbSymbolTableRecord
100
AcDbLinetypeTableRecord
  2
ByBlock
 70
     0
  3

 72
    65
 73
     0
 40
0.0
  0
LTYPE
  5
15
330
5
100
AcDbSymbolTableRecord
100
AcDbLinetypeTableRecord
  2
ByLayer
 70
     0
  3

 72
    65
 73
     0
 40
0.0
  0
LTYPE
  5
16
330
5
100
AcDbSymbolTableRecord
100
AcDbLinetypeTableRecord
  2
Continuous
 70
     0
  3
Solid line
 72
    65
 73
     0
 40
0.0
  0
LTYPE
  5
6E
330
5
100
AcDbSymbolTableRecord
100
AcDbLinetypeTableRecord
  2
HIDDEN
 70
     0
  3
Hidden __ __ __ __ __ __ __ __ __ __ __ __ __ __
 72
    65
 73
     2
 40
1.905
 49
1.27
 74
     0
 49
-0.635
 74
     0
  0
LTYPE
  5
6F
330
5
100
AcDbSymbolTableRecord
100
AcDbLinetypeTableRecord
  2
PHANTOM
 70
     0
  3
Phantom ______  __  __  ______  __  __  ______
 72
    65
 73
     6
 40
12.7
 49
6.35
 74
     0
 49
-1.27
 74
     0
 49
1.27
 74
     0
 49
-1.27
 74
     0
 49
1.27
 74
     0
 49
-1.27
 74
     0
  0
LTYPE
  5
70
330
5
100
AcDbSymbolTableRecord
100
AcDbLinetypeTableRecord
  2
CENTER
 70
     0
  3
Center ____ _ ____ _ ____ _ ____ _ ____ _ ____
 72
    65
 73
     4
 40
10.16
 49
6.35
 74
     0
 49
-1.27
 74
     0
 49
1.27
 74
     0
 49
-1.27
 74
     0
  0
LTYPE
  5
71
330
5
100
AcDbSymbolTableRecord
100
AcDbLinetypeTableRecord
  2
CENTERX2
 70
     0
  3
Center (2x) ________  __  ________  __  _____
 72
    65
 73
     4
 40
20.32
 49
12.7
 74
     0
 49
-2.54
 74
     0
 49
2.54
 74
     0
 49
-2.54
 74
     0
  0
LTYPE
  5
72
330
5
100
AcDbSymbolTableRecord
100
AcDbLinetypeTableRecord
  2
DOT2
 70
     0
  3
Dot (.5x) ........................................
 72
    65
 73
     2
 40
0.635
 49
0.0
 74
     0
 49
-0.635
 74
     0
  0
ENDTAB
  0
TABLE
  2
LAYER
  5
2
330
0
100
AcDbSymbolTable
 70
     1
  0
LAYER
  5
10
330
2
100
AcDbSymbolTableRecord
100
AcDbLayerTableRecord
  2
0
 70
     0
 62
     7
  6
Continuous
370
    -3
390
F
  0
ENDTAB
  0
TABLE
  2
STYLE
  5
3
330
0
100
AcDbSymbolTable
 70
     1
  0
STYLE
  5
11
330
3
100
AcDbSymbolTableRecord
100
AcDbTextStyleTableRecord
  2
Standard
 70
     0
 40
0.0
 41
1.0
 50
0.0
 71
     0
 42
3.5
  3
txt
  4

  0
ENDTAB
  0
TABLE
  2
VIEW
  5
6
330
0
100
AcDbSymbolTable
 70
     0
  0
ENDTAB
  0
TABLE
  2
UCS
  5
7
330
0
100
AcDbSymbolTable
 70
     0
  0
ENDTAB
  0
TABLE
  2
APPID
  5
9
330
0
100
AcDbSymbolTable
 70
     1
  0
APPID
  5
12
330
9
100
AcDbSymbolTableRecord
100
AcDbRegAppTableRecord
  2
ACAD
 70
     0
  0
ENDTAB
  0
TABLE
  2
DIMSTYLE
  5
A
330
0
100
AcDbSymbolTable
 70
     1
100
AcDbDimStyleTable
  0
DIMSTYLE
105
27
330
A
100
AcDbSymbolTableRecord
100
AcDbDimStyleTableRecord
  2
ISO-25
 70
     0
 41
2.5
 42
0.625
 43
3.75
 44
1.25
 73
     0
 74
     0
 77
     1
 78
     8
140
2.5
141
2.5
143
0.0393700787
147
0.625
171
     3
172
     1
178
     0
271
     2
272
     2
274
     3
278
    44
283
     0
284
     8
340
11
  0
ENDTAB
  0
TABLE
  2
BLOCK_RECORD
  5
1
330
0
100
AcDbSymbolTable
 70
     7
  0
BLOCK_RECORD
  5
1F
330
1
100
AcDbSymbolTableRecord
100
AcDbBlockTableRecord
  2
*Model_Space
340
22
  0
BLOCK_RECORD
  5
1B
330
1
100
AcDbSymbolTableRecord
100
AcDbBlockTableRecord
  2
*Paper_Space
340
1E
  0
BLOCK_RECORD
  5
23
330
1
100
AcDbSymbolTableRecord
100
AcDbBlockTableRecord
  2
*Paper_Space0
340
26
  0
BLOCK_RECORD
  5
D8
330
1
100
AcDbSymbolTableRecord
100
AcDbBlockTableRecord
  2
*Paper_Space1
340
D9
  0
BLOCK_RECORD
  5
10C
330
1
100
AcDbSymbolTableRecord
100
AcDbBlockTableRecord
  2
*Paper_Space2
340
10D
  0
BLOCK_RECORD
  5
13E
330
1
100
AcDbSymbolTableRecord
100
AcDbBlockTableRecord
  2
*Paper_Space3
340
13F
  0
BLOCK_RECORD
  5
146
330
1
100
AcDbSymbolTableRecord
100
AcDbBlockTableRecord
  2
*Paper_Space4
340
147
  0
BLOCK_RECORD
  5
165
330
1
100
AcDbSymbolTableRecord
100
AcDbBlockTableRecord
  2
*Paper_Space5
340
166
  0
BLOCK_RECORD
  5
186
330
1
100
AcDbSymbolTableRecord
100
AcDbBlockTableRecord
  2
*Paper_Space6
340
187
  0
ENDTAB
  0
ENDSEC
  0
SECTION
  2
BLOCKS
  0
BLOCK
  5
20
330
1F
100
AcDbEntity
  8
0
100
AcDbBlockBegin
  2
*Model_Space
 70
     0
 10
0.0
 20
0.0
 30
0.0
  3
*Model_Space
  1

  0
ENDBLK
  5
21
330
1F
100
AcDbEntity
  8
0
100
AcDbBlockEnd
  0
BLOCK
  5
1C
330
1B
100
AcDbEntity
 67
     1
  8
0
100
AcDbBlockBegin
  2
*Paper_Space
 70
     0
 10
0.0
 20
0.0
 30
0.0
  3
*Paper_Space
  1

  0
ENDBLK
  5
1D
330
1B
100
AcDbEntity
 67
     1
  8
0
100
AcDbBlockEnd
  0
BLOCK
  5
24
330
23
100
AcDbEntity
  8
0
100
AcDbBlockBegin
  2
*Paper_Space0
 70
     0
 10
0.0
 20
0.0
 30
0.0
  3
*Paper_Space0
  1

  0
LINE
  5
C1
330
23
100
AcDbEntity
  8
0
  6
Continuous
 62
     7
370
    25
100
AcDbLine
 10
-12.0
 20
0.1
 30
0.0
 11
-12.0
 21
0.0
 31
0.0
  0
LINE
  5
C2
330
23
100
AcDbEntity
  8
0
  6
Continuous
 62
     7
370
    25
100
AcDbLine
 10
12.0
 20
0.0
 30
0.0
 11
12.0
 21
0.1
 31
0.0
  0
LINE
  5
C3
330
23
100
AcDbEntity
  8
0
  6
Continuous
 62
     7
370
    25
100
AcDbLine
 10
-17.0
 20
22.0
 30
0.0
 11
17.0
 21
22.0
 31
0.0
  0
LINE
  5
C4
330
23
100
AcDbEntity
  8
0
  6
Continuous
 62
     7
370
    25
100
AcDbLine
 10
-16.0000011362
 20
23.0
 30
0.0
 11
16.0000011358
 21
23.0
 31
0.0
  0
LINE
  5
C5
330
23
100
AcDbEntity
  8
0
  6
Continuous
 62
     7
370
    25
100
AcDbLine
 10
-12.0
 20
0.0
 30
0.0
 11
12.0
 21
0.0
 31
0.0
  0
LINE
  5
C6
330
23
100
AcDbEntity
  8
0
  6
Continuous
 62
     7
370
    25
100
AcDbLine
 10
9.6
 20
2.5
 30
0.0
 11
-9.6
 21
2.5
 31
0.0
  0
LINE
  5
C7
330
23
100
AcDbEntity
  8
0
  6
Continuous
 62
     7
370
    25
100
AcDbLine
 10
-8.4
 20
3.5
 30
0.0
 11
8.4
 21
3.5
 31
0.0
  0
LINE
  5
C8
330
23
100
AcDbEntity
  8
0
  6
Continuous
 62
     8
370
    25
100
AcDbLine
 10
-17.1612441167
 20
18.0
 30
0.0
 11
17.1612441167
 21
18.0
 31
0.0
  0
LINE
  5
C9
330
23
100
AcDbEntity
  8
0
  6
Continuous
 62
     8
370
    25
100
AcDbLine
 10
-5.0
 20
8.0
 30
0.0
 11
5.0
 21
8.0
 31
0.0
  0
LINE
  5
CA
330
23
100
AcDbEntity
  8
0
  6
Continuous
 62
     8
370
    25
100
AcDbLine
 10
12.0
 20
0.1
 30
0.0
 11
-12.0
 21
0.1
 31
0.0
  0
ARC
  5
CB
330
23
100
AcDbEntity
  8
0
  6
Continuous
 62
     7
370
    25
100
AcDbCircle
 10
-16.9966120347
 20
19.9966120347
 30
0.0
 40
2.003387965303371
100
AcDbArc
 50
90.0968938275
 51
265.2862987057
  0
ARC
  5
CC
330
23
100
AcDbEntity
  8
0
  6
Continuous
 62
     7
370
    25
100
AcDbCircle
 10
16.9966120347
 20
19.9966120347
 30
0.0
 40
2.003387965303371
100
AcDbArc
 50
274.7137012944
 51
89.9031061725
  0
ARC
  5
CD
330
23
100
AcDbEntity
  8
0
  6
Continuous
 62
     7
370
    25
100
AcDbCircle
 10
-18.2971725114
 20
4.223776826
 30
0.0
 40
13.82297573814242
100
AcDbArc
 50
15.8538533654
 51
85.2862987057
  0
ARC
  5
CE
330
23
100
AcDbEntity
  8
0
  6
Continuous
 62
     7
370
    25
100
AcDbCircle
 10
18.2971725114
 20
4.223776826
 30
0.0
 40
13.82297573814242
100
AcDbArc
 50
94.7137012943
 51
164.1461466346
  0
ARC
  5
CF
330
23
100
AcDbEntity
  8
0
  6
Continuous
 62
     7
370
    25
100
AcDbCircle
 10
-16.0
 20
22.0
 30
0.0
 40
1.000000000000004
100
AcDbArc
 50
90.0000650994
 51
180.0
  0
ARC
  5
D0
330
23
100
AcDbEntity
  8
0
  6
Continuous
 62
     7
370
    25
100
AcDbCircle
 10
16.0
 20
22.0
 30
0.0
 40
0.9999999999999964
100
AcDbArc
 50
360.0
 51
89.9999349006
  0
ARC
  5
D1
330
23
100
AcDbEntity
  8
0
  6
Continuous
 62
     7
370
    25
100
AcDbCircle
 10
0.0
 20
-18.1666727264
 30
0.0
 40
44.16667272639648
100
AcDbArc
 50
68.7606909216
 51
111.2393090784
  0
ARC
  5
D2
330
23
100
AcDbEntity
  8
0
  6
Continuous
 62
     7
370
    25
100
AcDbCircle
 10
9.6
 20
0.1
 30
0.0
 40
2.399999999999999
100
AcDbArc
 50
0.0
 51
90.0
  0
ARC
  5
D3
330
23
100
AcDbEntity
  8
0
  6
Continuous
 62
     7
370
    25
100
AcDbCircle
 10
-9.6
 20
0.1
 30
0.0
 40
2.399999999999999
100
AcDbArc
 50
90.0
 51
180.0
  0
ARC
  5
D4
330
23
100
AcDbEntity
  8
0
  6
Continuous
 62
     7
370
    25
100
AcDbCircle
 10
-8.4
 20
2.5
 30
0.0
 40
1.000000000000002
100
AcDbArc
 50
90.0
 51
180.0
  0
ARC
  5
D5
330
23
100
AcDbEntity
  8
0
  6
Continuous
 62
     7
370
    25
100
AcDbCircle
 10
8.4
 20
2.5
 30
0.0
 40
1.0
100
AcDbArc
 50
0.0
 51
90.0
  0
ARC
  5
D6
330
23
100
AcDbEntity
  8
0
  6
Continuous
 62
     7
370
    25
100
AcDbCircle
 10
-8.4
 20
7.0344444444
 30
0.0
 40
3.534444444444447
100
AcDbArc
 50
270.0
 51
15.8538533654
  0
ARC
  5
D7
330
23
100
AcDbEntity
  8
0
  6
Continuous
 62
     7
370
    25
100
AcDbCircle
 10
8.4
 20
7.0344444444
 30
0.0
 40
3.534444444444447
100
AcDbArc
 50
164.1461466346
 51
270.0
  0
VIEWPORT
  5
1AC
330
23
100
AcDbEntity
  8
0
100
AcDbViewport
 10
0.0
 20
0.0
 30
0.0
 40
205.6
 41
156.0
 68
     1
 69
     1
 12
0.0
 22
13.0
 13
0.0
 23
0.0
 14
10.0
 24
10.0
 15
10.0
 25
10.0
 16
0.0
 26
0.0
 36
1.0
 17
0.0
 27
0.0
 37
0.0
 42
50.0
 43
0.0
 44
0.0
 45
29.4093385214
 50
0.0
 51
0.0
 72
   100
 90
   557152
  1

281
     0
 71
     1
 74
     0
110
0.0
120
0.0
130
0.0
111
1.0
121
0.0
131
0.0
112
0.0
122
1.0
132
0.0
 79
     0
146
0.0
  0
ENDBLK
  5
25
330
23
100
AcDbEntity
  8
0
100
AcDbBlockEnd
  0
BLOCK
  5
DA
330
D8
100
AcDbEntity
  8
0
100
AcDbBlockBegin
  2
*Paper_Space1
 70
     0
 10
0.0
 20
0.0
 30
0.0
  3
*Paper_Space1
  1

  0
LINE
  5
F5
330
D8
100
AcDbEntity
  8
0
  6
Continuous
 62
     7
370
    25
100
AcDbLine
 10
-12.0
 20
0.1
 30
0.0
 11
-12.0
 21
0.0
 31
0.0
  0
LINE
  5
F6
330
D8
100
AcDbEntity
  8
0
  6
Continuous
 62
     7
370
    25
100
AcDbLine
 10
12.0
 20
0.0
 30
0.0
 11
12.0
 21
0.1
 31
0.0
  0
LINE
  5
F7
330
D8
100
AcDbEntity
  8
0
  6
Continuous
 62
     7
370
    25
100
AcDbLine
 10
-17.0
 20
22.0
 30
0.0
 11
17.0
 21
22.0
 31
0.0
  0
LINE
  5
F8
330
D8
100
AcDbEntity
  8
0
  6
Continuous
 62
     7
370
    25
100
AcDbLine
 10
-16.0000011362
 20
23.0
 30
0.0
 11
16.0000011362
 21
23.0
 31
0.0
  0
LINE
  5
F9
330
D8
100
AcDbEntity
  8
0
  6
Continuous
 62
     7
370
    25
100
AcDbLine
 10
-12.0
 20
0.0
 30
0.0
 11
12.0
 21
0.0
 31
0.0
  0
LINE
  5
FA
330
D8
100
AcDbEntity
  8
0
  6
Continuous
 62
     7
370
    25
100
AcDbLine
 10
-9.6
 20
2.5
 30
0.0
 11
9.6
 21
2.5
 31
0.0
  0
LINE
  5
FB
330
D8
100
AcDbEntity
  8
0
  6
Continuous
 62
     7
370
    25
100
AcDbLine
 10
-8.4
 20
3.5
 30
0.0
 11
8.4
 21
3.5
 31
0.0
  0
LINE
  5
FC
330
D8
100
AcDbEntity
  8
0
  6
Continuous
 62
     8
370
    25
100
AcDbLine
 10
-17.1612441167
 20
18.0
 30
0.0
 11
17.1612441167
 21
18.0
 31
0.0
  0
LINE
  5
FD
330
D8
100
AcDbEntity
  8
0
  6
Continuous
 62
     8
370
    25
100
AcDbLine
 10
-5.0
 20
8.0
 30
0.0
 11
5.0
 21
8.0
 31
0.0
  0
LINE
  5
FE
330
D8
100
AcDbEntity
  8
0
  6
Continuous
 62
     8
370
    25
100
AcDbLine
 10
12.0
 20
0.1
 30
0.0
 11
-12.0
 21
0.1
 31
0.0
  0
ARC
  5
FF
330
D8
100
AcDbEntity
  8
0
  6
Continuous
 62
     7
370
    25
100
AcDbCircle
 10
-16.9966120347
 20
19.9966120347
 30
0.0
 40
2.003387965303371
100
AcDbArc
 50
90.0968938275
 51
265.2862987057
  0
ARC
  5
100
330
D8
100
AcDbEntity
  8
0
  6
Continuous
 62
     7
370
    25
100
AcDbCircle
 10
16.9966120347
 20
19.9966120347
 30
0.0
 40
2.003387965303371
100
AcDbArc
 50
274.7137012944
 51
89.9031061725
  0
ARC
  5
101
330
D8
100
AcDbEntity
  8
0
  6
Continuous
 62
     7
370
    25
100
AcDbCircle
 10
-18.2971725114
 20
4.223776826
 30
0.0
 40
13.82297573814242
100
AcDbArc
 50
15.8538533654
 51
85.2862987057
  0
ARC
  5
102
330
D8
100
AcDbEntity
  8
0
  6
Continuous
 62
     7
370
    25
100
AcDbCircle
 10
18.2971725114
 20
4.223776826
 30
0.0
 40
13.82297573814242
100
AcDbArc
 50
94.7137012943
 51
164.1461466346
  0
ARC
  5
103
330
D8
100
AcDbEntity
  8
0
  6
Continuous
 62
     7
370
    25
100
AcDbCircle
 10
-16.0
 20
22.0
 30
0.0
 40
1.000000000000004
100
AcDbArc
 50
90.0000650994
 51
180.0
  0
ARC
  5
104
330
D8
100
AcDbEntity
  8
0
  6
Continuous
 62
     7
370
    25
100
AcDbCircle
 10
16.0
 20
22.0
 30
0.0
 40
0.9999999999999964
100
AcDbArc
 50
360.0
 51
89.9999349006
  0
ARC
  5
105
330
D8
100
AcDbEntity
  8
0
  6
Continuous
 62
     7
370
    25
100
AcDbCircle
 10
0.0
 20
-18.1666727264
 30
0.0
 40
44.16667272639648
100
AcDbArc
 50
68.7606909216
 51
111.2393090784
  0
ARC
  5
106
330
D8
100
AcDbEntity
  8
0
  6
Continuous
 62
     7
370
    25
100
AcDbCircle
 10
9.6
 20
0.1
 30
0.0
 40
2.399999999999999
100
AcDbArc
 50
0.0
 51
90.0
  0
ARC
  5
107
330
D8
100
AcDbEntity
  8
0
  6
Continuous
 62
     7
370
    25
100
AcDbCircle
 10
-9.6
 20
0.1
 30
0.0
 40
2.399999999999999
100
AcDbArc
 50
90.0
 51
180.0
  0
ARC
  5
108
330
D8
100
AcDbEntity
  8
0
  6
Continuous
 62
     7
370
    25
100
AcDbCircle
 10
-8.4
 20
2.5
 30
0.0
 40
1.000000000000002
100
AcDbArc
 50
90.0
 51
180.0
  0
ARC
  5
109
330
D8
100
AcDbEntity
  8
0
  6
Continuous
 62
     7
370
    25
100
AcDbCircle
 10
8.4
 20
2.5
 30
0.0
 40
1.0
100
AcDbArc
 50
0.0
 51
90.0
  0
ARC
  5
10A
330
D8
100
AcDbEntity
  8
0
  6
Continuous
 62
     7
370
    25
100
AcDbCircle
 10
-8.4
 20
7.0344444444
 30
0.0
 40
3.534444444444447
100
AcDbArc
 50
270.0
 51
15.8538533654
  0
ARC
  5
10B
330
D8
100
AcDbEntity
  8
0
  6
Continuous
 62
     7
370
    25
100
AcDbCircle
 10
8.4
 20
7.0344444444
 30
0.0
 40
3.534444444444447
100
AcDbArc
 50
164.1461466346
 51
270.0
  0
VIEWPORT
  5
1AE
330
D8
100
AcDbEntity
  8
0
100
AcDbViewport
 10
0.0
 20
0.0
 30
0.0
 40
205.6
 41
156.0
 68
     1
 69
     1
 12
0.0
 22
13.0
 13
0.0
 23
0.0
 14
10.0
 24
10.0
 15
10.0
 25
10.0
 16
0.0
 26
0.0
 36
1.0
 17
0.0
 27
0.0
 37
0.0
 42
50.0
 43
0.0
 44
0.0
 45
29.4093385214
 50
0.0
 51
0.0
 72
   100
 90
   557152
  1

281
     0
 71
     1
 74
     0
110
0.0
120
0.0
130
0.0
111
1.0
121
0.0
131
0.0
112
0.0
122
1.0
132
0.0
 79
     0
146
0.0
  0
ENDBLK
  5
DB
330
D8
100
AcDbEntity
  8
0
100
AcDbBlockEnd
  0
BLOCK
  5
10E
330
10C
100
AcDbEntity
  8
0
100
AcDbBlockBegin
  2
*Paper_Space2
 70
     0
 10
0.0
 20
0.0
 30
0.0
  3
*Paper_Space2
  1

  0
LINE
  5
127
330
10C
100
AcDbEntity
  8
0
  6
Continuous
 62
     7
370
    25
100
AcDbLine
 10
-12.0
 20
0.1
 30
0.0
 11
-12.0
 21
0.0
 31
0.0
  0
LINE
  5
128
330
10C
100
AcDbEntity
  8
0
  6
Continuous
 62
     7
370
    25
100
AcDbLine
 10
12.0
 20
0.0
 30
0.0
 11
12.0
 21
0.1
 31
0.0
  0
LINE
  5
129
330
10C
100
AcDbEntity
  8
0
  6
Continuous
 62
     7
370
    25
100
AcDbLine
 10
-17.0
 20
22.0
 30
0.0
 11
17.0
 21
22.0
 31
0.0
  0
LINE
  5
12A
330
10C
100
AcDbEntity
  8
0
  6
Continuous
 62
     7
370
    25
100
AcDbLine
 10
16.0000011362
 20
23.0
 30
0.0
 11
-16.0000011362
 21
23.0
 31
0.0
  0
LINE
  5
12B
330
10C
100
AcDbEntity
  8
0
  6
Continuous
 62
     7
370
    25
100
AcDbLine
 10
-12.0
 20
0.0
 30
0.0
 11
12.0
 21
0.0
 31
0.0
  0
LINE
  5
12C
330
10C
100
AcDbEntity
  8
0
  6
Continuous
 62
     7
370
    25
100
AcDbLine
 10
-9.6
 20
2.5
 30
0.0
 11
9.5999999991
 21
2.5
 31
0.0
  0
LINE
  5
12D
330
10C
100
AcDbEntity
  8
0
  6
Continuous
 62
     7
370
    25
100
AcDbLine
 10
-8.3999999999
 20
3.5
 30
0.0
 11
8.4
 21
3.5
 31
0.0
  0
LINE
  5
12E
330
10C
100
AcDbEntity
  8
0
  6
Continuous
 62
     8
370
    25
100
AcDbLine
 10
-17.1612441167
 20
18.0
 30
0.0
 11
17.1612441167
 21
18.0
 31
0.0
  0
LINE
  5
12F
330
10C
100
AcDbEntity
  8
0
  6
Continuous
 62
     8
370
    25
100
AcDbLine
 10
-5.0
 20
8.0
 30
0.0
 11
5.0
 21
8.0
 31
0.0
  0
LINE
  5
130
330
10C
100
AcDbEntity
  8
0
  6
Continuous
 62
     8
370
    25
100
AcDbLine
 10
12.0
 20
0.1
 30
0.0
 11
-12.0
 21
0.1
 31
0.0
  0
ARC
  5
131
330
10C
100
AcDbEntity
  8
0
  6
Continuous
 62
     7
370
    25
100
AcDbCircle
 10
-16.9966120347
 20
19.9966120347
 30
0.0
 40
2.003387965303371
100
AcDbArc
 50
90.0968938275
 51
265.2862987057
  0
ARC
  5
132
330
10C
100
AcDbEntity
  8
0
  6
Continuous
 62
     7
370
    25
100
AcDbCircle
 10
16.9966120347
 20
19.9966120347
 30
0.0
 40
2.003387965303371
100
AcDbArc
 50
274.7137012944
 51
89.9031061725
  0
ARC
  5
133
330
10C
100
AcDbEntity
  8
0
  6
Continuous
 62
     7
370
    25
100
AcDbCircle
 10
-18.2971725114
 20
4.223776826
 30
0.0
 40
13.82297573814242
100
AcDbArc
 50
15.8538533654
 51
85.2862987057
  0
ARC
  5
134
330
10C
100
AcDbEntity
  8
0
  6
Continuous
 62
     7
370
    25
100
AcDbCircle
 10
18.2971725114
 20
4.223776826
 30
0.0
 40
13.82297573814242
100
AcDbArc
 50
94.7137012943
 51
164.1461466346
  0
ARC
  5
135
330
10C
100
AcDbEntity
  8
0
  6
Continuous
 62
     7
370
    25
100
AcDbCircle
 10
-16.0
 20
22.0
 30
0.0
 40
1.000000000000004
100
AcDbArc
 50
90.0000650994
 51
180.0
  0
ARC
  5
136
330
10C
100
AcDbEntity
  8
0
  6
Continuous
 62
     7
370
    25
100
AcDbCircle
 10
16.0
 20
22.0
 30
0.0
 40
0.9999999999999964
100
AcDbArc
 50
360.0
 51
89.9999349006
  0
ARC
  5
137
330
10C
100
AcDbEntity
  8
0
  6
Continuous
 62
     7
370
    25
100
AcDbCircle
 10
0.0
 20
-18.1666727264
 30
0.0
 40
44.16667272639648
100
AcDbArc
 50
68.7606909216
 51
111.2393090784
  0
ARC
  5
138
330
10C
100
AcDbEntity
  8
0
  6
Continuous
 62
     7
370
    25
100
AcDbCircle
 10
9.6
 20
0.1
 30
0.0
 40
2.399999999999999
100
AcDbArc
 50
0.0
 51
90.0
  0
ARC
  5
139
330
10C
100
AcDbEntity
  8
0
  6
Continuous
 62
     7
370
    25
100
AcDbCircle
 10
-9.6
 20
0.1
 30
0.0
 40
2.399999999999999
100
AcDbArc
 50
90.0
 51
180.0
  0
ARC
  5
13A
330
10C
100
AcDbEntity
  8
0
  6
Continuous
 62
     7
370
    25
100
AcDbCircle
 10
-8.4
 20
2.5
 30
0.0
 40
1.000000000000002
100
AcDbArc
 50
90.0
 51
180.0
  0
ARC
  5
13B
330
10C
100
AcDbEntity
  8
0
  6
Continuous
 62
     7
370
    25
100
AcDbCircle
 10
8.4
 20
2.5
 30
0.0
 40
1.0
100
AcDbArc
 50
0.0
 51
90.0
  0
ARC
  5
13C
330
10C
100
AcDbEntity
  8
0
  6
Continuous
 62
     7
370
    25
100
AcDbCircle
 10
-8.4
 20
7.0344444444
 30
0.0
 40
3.534444444444447
100
AcDbArc
 50
270.0
 51
15.8538533654
  0
ARC
  5
13D
330
10C
100
AcDbEntity
  8
0
  6
Continuous
 62
     7
370
    25
100
AcDbCircle
 10
8.4
 20
7.0344444444
 30
0.0
 40
3.534444444444447
100
AcDbArc
 50
164.1461466346
 51
270.0
  0
VIEWPORT
  5
1B0
330
10C
100
AcDbEntity
  8
0
100
AcDbViewport
 10
0.0
 20
0.0
 30
0.0
 40
205.6
 41
156.0
 68
     1
 69
     1
 12
0.0
 22
13.0
 13
0.0
 23
0.0
 14
10.0
 24
10.0
 15
10.0
 25
10.0
 16
0.0
 26
0.0
 36
1.0
 17
0.0
 27
0.0
 37
0.0
 42
50.0
 43
0.0
 44
0.0
 45
29.4093385214
 50
0.0
 51
0.0
 72
   100
 90
   557152
  1

281
     0
 71
     1
 74
     0
110
0.0
120
0.0
130
0.0
111
1.0
121
0.0
131
0.0
112
0.0
122
1.0
132
0.0
 79
     0
146
0.0
  0
ENDBLK
  5
10F
330
10C
100
AcDbEntity
  8
0
100
AcDbBlockEnd
  0
BLOCK
  5
140
330
13E
100
AcDbEntity
  8
0
100
AcDbBlockBegin
  2
*Paper_Space3
 70
     0
 10
0.0
 20
0.0
 30
0.0
  3
*Paper_Space3
  1

  0
CIRCLE
  5
142
330
13E
100
AcDbEntity
  8
0
  6
Continuous
 62
     7
370
    25
100
AcDbCircle
 10
0.0
 20
0.0
 30
0.0
 40
18.99999999999994
  0
CIRCLE
  5
143
330
13E
100
AcDbEntity
  8
0
  6
Continuous
 62
     7
370
    25
100
AcDbCircle
 10
0.0
 20
0.0
 30
0.0
 40
11.99999999999998
  0
CIRCLE
  5
144
330
13E
100
AcDbEntity
  8
0
  6
Continuous
 62
     7
370
    25
100
AcDbCircle
 10
0.0
 20
0.0
 30
0.0
 40
2.5
  0
CIRCLE
  5
145
330
13E
100
AcDbEntity
  8
0
  6
Continuous
 62
     7
370
    25
100
AcDbCircle
 10
0.0
 20
0.0
 30
0.0
 40
17.16124411670668
  0
VIEWPORT
  5
1B2
330
13E
100
AcDbEntity
  8
0
100
AcDbViewport
 10
0.0
 20
0.0
 30
0.0
 40
205.6
 41
156.0
 68
     1
 69
     1
 12
0.0
 22
13.0
 13
0.0
 23
0.0
 14
10.0
 24
10.0
 15
10.0
 25
10.0
 16
0.0
 26
0.0
 36
1.0
 17
0.0
 27
0.0
 37
0.0
 42
50.0
 43
0.0
 44
0.0
 45
29.4093385214
 50
0.0
 51
0.0
 72
   100
 90
   557152
  1

281
     0
 71
     1
 74
     0
110
0.0
120
0.0
130
0.0
111
1.0
121
0.0
131
0.0
112
0.0
122
1.0
132
0.0
 79
     0
146
0.0
  0
ENDBLK
  5
141
330
13E
100
AcDbEntity
  8
0
100
AcDbBlockEnd
  0
BLOCK
  5
148
330
146
100
AcDbEntity
  8
0
100
AcDbBlockBegin
  2
*Paper_Space4
 70
     0
 10
0.0
 20
0.0
 30
0.0
  3
*Paper_Space4
  1

  0
SPLINE
  5
14A
330
146
100
AcDbEntity
  8
0
  6
Continuous
 62
     7
370
    25
100
AcDbSpline
210
0.0
220
0.0
230
1.0
 70
     8
 71
     3
 72
    89
 73
    85
 74
     0
 42
0.000000001
 43
0.00000001
 40
0.0
 40
0.0
 40
0.0
 40
0.0
 40
0.0067613972146142
 40
0.0194197436091234
 40
0.0320691593458243
 40
0.044710304436765
 40
0.0573404531387885
 40
0.0699579630547205
 40
0.0825620464809808
 40
0.0951525766191509
 40
0.1077299278174638
 40
0.1202948477872573
 40
0.1328483578494416
 40
0.1453916766676708
 40
0.1579261630433517
 40
0.1704532738088018
 40
0.1829745334334665
 40
0.1954915125304671
 40
0.208005812955418
 40
0.2205190576010094
 40
0.2330328833028053
 40
0.2455484109187187
 40
0.2580672680740222
 40
0.2705911051820754
 40
0.2831215658367866
 40
0.2956602770931973
 40
0.3082088352203114
 40
0.320768785013813
 40
0.3333415903314352
 40
0.3459285929780238
 40
0.3585309564396068
 40
0.3711495902923279
 40
0.3837850504945866
 40
0.3964374104041561
 40
0.4091060975852798
 40
0.4217896928290655
 40
0.434485691104899
 40
0.4471902304390493
 40
0.459896604958393
 40
0.4725956711841921
 40
0.4852771834569111
 40
0.4979287538023581
 40
0.5105361088803456
 40
0.523083673653328
 40
0.535555506635693
 40
0.5479365353596465
 40
0.5602139502344542
 40
0.5723785465191629
 40
0.5844257921466347
 40
0.5963564552587162
 40
0.6081767278899507
 40
0.6198978885732358
 40
0.6315356184958671
 40
0.6431091079893747
 40
0.6546400710573131
 40
0.6661517456325105
 40
0.6776619041852349
 40
0.6891923592892822
 40
0.7007657238577734
 40
0.7124026226948316
 40
0.724120821175889
 40
0.7359344203333094
 40
0.7478531820580852
 40
0.7598820719114476
 40
0.7720211137381957
 40
0.7842656271626783
 40
0.7966068631883207
 40
0.8090329762551061
 40
0.8215301987144358
 40
0.8340840439872269
 40
0.8466803731195732
 40
0.859306209876402
 40
0.8719502589475702
 40
0.8846031445562121
 40
0.8972559177201945
 40
0.9099029523274064
 40
0.9225406687082671
 40
0.9351667316668466
 40
0.9477798079416053
 40
0.9603793504556679
 40
0.9729654159311071
 40
0.9855385161676631
 40
0.9980995001106783
 40
1.0
 40
1.0
 40
1.0
 40
1.0
 10
-13.02003220455314
 20
7.654931988202521
 30
0.0
 10
-12.90907778615781
 20
7.591818109126615
 30
0.0
 10
-12.59040010917127
 20
7.41054561308361
 30
0.0
 10
-12.04529870091103
 20
7.125467252869604
 30
0.0
 10
-11.3784703457801
 20
6.806105721132552
 30
0.0
 10
-10.68995958623324
 20
6.506483207012465
 30
0.0
 10
-9.981574571417768
 20
6.226637374333129
 30
0.0
 10
-9.254644449067131
 20
5.966999633661688
 30
0.0
 10
-8.510643958624328
 20
5.727857307518335
 30
0.0
 10
-7.751008558546544
 20
5.509494469717568
 30
0.0
 10
-6.977188077511149
 20
5.312159445045704
 30
0.0
 10
-6.190635804221436
 20
5.13607680708842
 30
0.0
 10
-5.392813897737525
 20
4.98144604073857
 30
0.0
 10
-4.585193422981447
 20
4.848442742591455
 30
0.0
 10
-3.769254859280894
 20
4.737218449129126
 30
0.0
 10
-2.946487615530796
 20
4.647900408047903
 30
0.0
 10
-2.1183890671176
 20
4.580591148996429
 30
0.0
 10
-1.286463106846672
 20
4.535368048885797
 30
0.0
 10
-0.4522183392757679
 20
4.512282954717866
 30
0.0
 10
0.3828339929992045
 20
4.511361929417152
 30
0.0
 10
1.217170608652032
 20
4.532604863552523
 30
0.0
 10
2.049269848336276
 20
4.57598445146265
 30
0.0
 10
2.87761491746353
 20
4.641446476510912
 30
0.0
 10
3.700707833300558
 20
4.72891203252043
 30
0.0
 10
4.517060443992275
 20
4.838278042967212
 30
0.0
 10
5.325195869335184
 20
4.969418141841754
 30
0.0
 10
6.123650129314999
 20
5.122183722595326
 30
0.0
 10
6.910973348052451
 20
5.296405071078844
 30
0.0
 10
7.685730419122859
 20
5.491892496609164
 30
0.0
 10
8.446501009466044
 20
5.708437338214833
 30
0.0
 10
9.191878775446893
 20
5.945812674783243
 30
0.0
 10
9.920469670735967
 20
6.203773506504628
 30
0.0
 10
10.63088925021996
 20
6.482056100296961
 30
0.0
 10
11.32175892957869
 20
6.780376106593785
 30
0.0
 10
11.99170126337166
 20
7.098424967460696
 30
0.0
 10
12.63933447775395
 20
7.435864065745057
 30
0.0
 10
13.26326675586122
 20
7.792316043139625
 30
0.0
 10
13.86207229398003
 20
8.167340992680536
 30
0.0
 10
14.43428492018276
 20
8.560412388789771
 30
0.0
 10
14.97842066648522
 20
8.970904993681236
 30
0.0
 10
15.49300388436098
 20
9.39808726066535
 30
0.0
 10
15.97658874415395
 20
9.841110229810338
 30
0.0
 10
16.42777187317547
 20
10.29898359249233
 30
0.0
 10
16.84522982748736
 20
10.77057178036985
 30
0.0
 10
17.22776237691546
 20
11.2546028845513
 30
0.0
 10
17.5743356171536
 20
11.74969199378016
 30
0.0
 10
17.88411738658476
 20
12.25437747793455
 30
0.0
 10
18.15649794304548
 20
12.76716548172284
 30
0.0
 10
18.39109159194761
 20
13.28657573650746
 30
0.0
 10
18.58771910295419
 20
13.8111816888533
 30
0.0
 10
18.74637475318072
 20
14.33963989664337
 30
0.0
 10
18.86718427775772
 20
14.87070671917431
 30
0.0
 10
18.95036035213147
 20
15.40324320548206
 30
0.0
 10
18.9961609219503
 20
15.93621080213465
 30
0.0
 10
19.0048537301552
 20
16.46866078830745
 30
0.0
 10
18.97669355985695
 20
16.9996273303661
 30
0.0
 10
18.9119298130963
 20
17.528180140819
 30
0.0
 10
18.81079808833183
 20
18.053442310853
 30
0.0
 10
18.67348035881183
 20
18.5746634401539
 30
0.0
 10
18.50010274180424
 20
19.09112780223212
 30
0.0
 10
18.29075590543146
 20
19.60209778823753
 30
0.0
 10
18.04552337034644
 20
20.10678754402518
 30
0.0
 10
17.76451960811564
 20
20.60434139611144
 30
0.0
 10
17.44793429324975
 20
21.09382088965971
 30
0.0
 10
17.09607707327864
 20
21.57420371506893
 30
0.0
 10
16.70941601666535
 20
22.0443961267107
 30
0.0
 10
16.28860322843694
 20
22.50325788539929
 30
0.0
 10
15.83448328375407
 20
22.94963600270842
 30
0.0
 10
15.34808366635932
 20
23.38240159277093
 30
0.0
 10
14.83059018540038
 20
23.8004836983385
 30
0.0
 10
14.28331309466392
 20
24.202895197079
 30
0.0
 10
13.70765052706601
 20
24.58874823267684
 30
0.0
 10
13.10505496214375
 20
24.95725922174935
 30
0.0
 10
12.47703122559334
 20
25.30773126243578
 30
0.0
 10
11.8250969183511
 20
25.63956270943856
 30
0.0
 10
11.15076133720559
 20
25.95223762823607
 30
0.0
 10
10.45549388684205
 20
26.24532774547387
 30
0.0
 10
9.740738003950877
 20
26.51844356634225
 30
0.0
 10
9.007964162651916
 20
26.77130128079694
 30
0.0
 10
8.258520515026095
 20
27.00341527382002
 30
0.0
 10
7.494205740668052
 20
27.21521362133956
 30
0.0
 10
6.715150519883752
 20
27.40386025682518
 30
0.0
 10
6.150250949368968
 20
27.52936911011376
 30
0.0
 10
5.842341032832405
 20
27.58549629395339
 30
0.0
 10
5.801876114495999
 20
27.59287241855525
 30
0.0
  0
SPLINE
  5
14B
330
146
100
AcDbEntity
  8
0
  6
Continuous
 62
     7
370
    25
100
AcDbSpline
210
0.0
220
0.0
230
1.0
 70
     8
 71
     3
 72
    54
 73
    50
 74
     0
 42
0.000000001
 43
0.00000001
 40
0.0
 40
0.0
 40
0.0
 40
0.0
 40
0.0144987132179551
 40
0.0365617007532774
 40
0.0586480782258954
 40
0.08076010980296
 40
0.102899706348706
 40
0.1250682795188837
 40
0.1472665505152497
 40
0.1694943044188628
 40
0.191750081951555
 40
0.2140308038556893
 40
0.2363313303962536
 40
0.2586439717165945
 40
0.2809543006504869
 40
0.3032462120639696
 40
0.3255004383498682
 40
0.3476940432364393
 40
0.3698010539700761
 40
0.3917936931260402
 40
0.4136442149713333
 40
0.4353272030097303
 40
0.4568220318083341
 40
0.4781151036178492
 40
0.499201489816413
 40
0.5200857398749972
 40
0.5407818117833966
 40
0.561312250236353
 40
0.5817068365467465
 40
0.6020009457647519
 40
0.622233796424188
 40
0.642445331617192
 40
0.6626649225423765
 40
0.6829337126108556
 40
0.703290418081015
 40
0.723769745625539
 40
0.7444008909198856
 40
0.7652061867392778
 40
0.7862000270852735
 40
0.8073882296506936
 40
0.8287679949880143
 40
0.8503285603990418
 40
0.8720525324541782
 40
0.8939177439280475
 40
0.9158993680537144
 40
0.9379719802939817
 40
0.9601113003563299
 40
0.982295452169534
 40
0.9999999999999999
 40
0.9999999999999999
 40
0.9999999999999999
 40
0.9999999999999999
 10
-5.862965470712624
 20
27.57979377615898
 30
0.0
 10
-6.037639346157811
 20
27.54552714167548
 30
0.0
 10
-6.478118019501965
 20
27.45911627079516
 30
0.0
 10
-7.170950695589813
 20
27.29622268512361
 30
0.0
 10
-7.941552443632911
 20
27.09434777771439
 30
0.0
 10
-8.697240687773236
 20
26.87063882871599
 30
0.0
 10
-9.437191535026638
 20
26.6264074670176
 30
0.0
 10
-10.15985931892991
 20
26.36161527907344
 30
0.0
 10
-10.86390367791824
 20
26.07661033170206
 30
0.0
 10
-11.54793579280439
 20
25.77166369257505
 30
0.0
 10
-12.21058040868343
 20
25.44709878407453
 30
0.0
 10
-12.85045221810301
 20
25.10326453828353
 30
0.0
 10
-13.46615506683119
 20
24.74055415752284
 30
0.0
 10
-14.0562435656451
 20
24.35943685146914
 30
0.0
 10
-14.61924483009792
 20
23.96046976765949
 30
0.0
 10
-15.15367102265131
 20
23.54431598492171
 30
0.0
 10
-15.65805895386295
 20
23.11174107495218
 30
0.0
 10
-16.13097333834082
 20
22.66364011862424
 30
0.0
 10
-16.57103294997743
 20
22.20105208725152
 30
0.0
 10
-16.97695055240494
 20
21.72515979058722
 30
0.0
 10
-17.34757689971143
 20
21.23727618449269
 30
0.0
 10
-17.68194213964442
 20
20.73881637480147
 30
0.0
 10
-17.97928699776104
 20
20.23125792312524
 30
0.0
 10
-18.23907738098277
 20
19.7160950938368
 30
0.0
 10
-18.46099938947327
 20
19.19479422172349
 30
0.0
 10
-18.6449360082954
 20
18.66875674851103
 30
0.0
 10
-18.79093035510328
 20
18.13929401011333
 30
0.0
 10
-18.89914210851658
 20
17.60761470360875
 30
0.0
 10
-18.96980344451855
 20
17.07482339990538
 30
0.0
 10
-19.00317916030242
 20
16.54192723304963
 30
0.0
 10
-18.99953378176284
 20
16.00986002999689
 30
0.0
 10
-18.95911857673328
 20
15.47959366645331
 30
0.0
 10
-18.88217959008576
 20
14.95203935783829
 30
0.0
 10
-18.76894213471575
 20
14.42804778025994
 30
0.0
 10
-18.61956603206102
 20
13.90833562401836
 30
0.0
 10
-18.43416310258877
 20
13.39362285260908
 30
0.0
 10
-18.21281794130413
 20
12.88466041987509
 30
0.0
 10
-17.95561977425682
 20
12.38225544994208
 30
0.0
 10
-17.66270310228541
 20
11.88729037093373
 30
0.0
 10
-17.33429291625233
 20
11.4007321510407
 30
0.0
 10
-16.97074783696248
 20
10.9236291528271
 30
0.0
 10
-16.57259606414725
 20
10.45709343621023
 30
0.0
 10
-16.14055129744942
 20
10.00227553179943
 30
0.0
 10
-15.67553121234665
 20
9.5603169211239
 30
0.0
 10
-15.17858151746263
 20
9.132358915686769
 30
0.0
 10
-14.65107640120623
 20
8.719340423635469
 30
0.0
 10
-14.09382394289945
 20
8.322615826396593
 30
0.0
 10
-13.54976970656515
 20
7.967349385694326
 30
0.0
 10
-13.1828770405936
 20
7.750971176814817
 30
0.0
 10
-13.02003220455314
 20
7.654931988202518
 30
0.0
  0
SPLINE
  5
14C
330
146
100
AcDbEntity
  8
0
  6
Continuous
 62
     7
370
    25
100
AcDbSpline
210
0.0
220
0.0
230
1.0
 70
     8
 71
     3
 72
    75
 73
    71
 74
     0
 42
0.000000001
 43
0.00000001
 40
0.0
 40
0.0
 40
0.0
 40
0.0
 40
0.0082524235404399
 40
0.0225089241870482
 40
0.0367716314179705
 40
0.0510649239123025
 40
0.0654107315345689
 40
0.0798270750007086
 40
0.094326973898427
 40
0.1089178313113629
 40
0.1236013693921968
 40
0.1383741213679075
 40
0.1532283951197271
 40
0.1681535395023023
 40
0.1831372991552878
 40
0.1981670544002292
 40
0.2132308024440008
 40
0.2283178176316591
 40
0.2434190020955297
 40
0.2585269854229348
 40
0.273634982560126
 40
0.288738704581975
 40
0.3038355344435821
 40
0.3189238069055587
 40
0.3340026061138311
 40
0.3490715927787804
 40
0.3641308624845582
 40
0.3791808329518311
 40
0.3942221564638701
 40
0.4092556532210437
 40
0.4242822615733878
 40
0.4393030015535121
 40
0.4543189486931032
 40
0.4693312156491275
 40
0.4843409396403456
 40
0.4993492740822432
 40
0.5143573831066373
 40
0.5293662658284369
 40
0.5443768794038099
 40
0.5593904015709998
 40
0.5744080087139012
 40
0.589430870634057
 40
0.6044601426052746
 40
0.6194969533604912
 40
0.6345423873976358
 40
0.649597459594321
 40
0.664663079627095
 40
0.6797400031107493
 40
0.6948287657453551
 40
0.7099295961713951
 40
0.7250423028604811
 40
0.7401661305194861
 40
0.7552995826661215
 40
0.7704402100079206
 40
0.7855840780107827
 40
0.8007243442753726
 40
0.8158536444499387
 40
0.8309627369734646
 40
0.8460405356937183
 40
0.8610743980157182
 40
0.8760507476274716
 40
0.8909560687679453
 40
0.9057782285554801
 40
0.9205079812438565
 40
0.9351404192358389
 40
0.9496761024991263
 40
0.9641216436690018
 40
0.9784896361960592
 40
0.9927979425628437
 40
0.9999999999999999
 40
0.9999999999999999
 40
0.9999999999999999
 40
0.9999999999999999
 10
16.99551007967176
 20
17.9632402719613
 30
0.0
 10
16.99608402973472
 20
18.05635115107858
 30
0.0
 10
16.99764950906222
 20
18.31031602682325
 30
0.0
 10
16.95933550378071
 20
18.72452143599153
 30
0.0
 10
16.88446929669037
 20
19.20416250143771
 30
0.0
 10
16.77153720526383
 20
19.68060412836239
 30
0.0
 10
16.62283704570123
 20
20.1530755833856
 30
0.0
 10
16.43793694144666
 20
20.62077125690753
 30
0.0
 10
16.21715672820974
 20
21.08282914721734
 30
0.0
 10
15.96068022173488
 20
21.5383141370115
 30
0.0
 10
15.66884659626949
 20
21.98621724869794
 30
0.0
 10
15.34211671363543
 20
22.42546851281015
 30
0.0
 10
14.98111262032611
 20
22.85496126333307
 30
0.0
 10
14.58661827895737
 20
23.27358265193591
 30
0.0
 10
14.15957189625322
 20
23.68024454598832
 30
0.0
 10
13.70104569515098
 20
24.07390968799702
 30
0.0
 10
13.21222059570462
 20
24.4536099748111
 30
0.0
 10
12.69436032294065
 20
24.81845603726601
 30
0.0
 10
12.14878880660291
 20
25.16763919797275
 30
0.0
 10
11.57688618479994
 20
25.50042010457521
 30
0.0
 10
10.98006661936834
 20
25.81613136169184
 30
0.0
 10
10.35976504248535
 20
26.11417272480623
 30
0.0
 10
9.71741726597349
 20
26.39400830341098
 30
0.0
 10
9.05447172965173
 20
26.65515130654417
 30
0.0
 10
8.372396457906957
 20
26.89715586846516
 30
0.0
 10
7.67267978050092
 20
27.11961373507035
 30
0.0
 10
6.956830911929416
 20
27.32215215177217
 30
0.0
 10
6.226380140714585
 20
27.50443270325376
 30
0.0
 10
5.482878513743328
 20
27.66615085976463
 30
0.0
 10
4.72789698665743
 20
27.80703601375045
 30
0.0
 10
3.963025062732317
 20
27.92685182818224
 30
0.0
 10
3.189868970600259
 20
28.02539675527181
 30
0.0
 10
2.41004944401392
 20
28.10250461727123
 30
0.0
 10
1.625199170776651
 20
28.1580451683941
 30
0.0
 10
0.8369599769225948
 20
28.19192457861945
 30
0.0
 10
0.0469798095859703
 20
28.20408579701254
 30
0.0
 10
-0.7430874044721882
 20
28.19450880168613
 30
0.0
 10
-1.53158422754112
 20
28.16321113251297
 30
0.0
 10
-2.3168569913786
 20
28.11024807080131
 30
0.0
 10
-3.097262210879943
 20
28.0357118898673
 30
0.0
 10
-3.871170554333864
 20
27.93973074121767
 30
0.0
 10
-4.636966093194041
 20
27.82246810413665
 30
0.0
 10
-5.393049194357168
 20
27.68412192141266
 30
0.0
 10
-6.137839167884761
 20
27.52492359959268
 30
0.0
 10
-6.869776597962741
 20
27.34513691520851
 30
0.0
 10
-7.587325280200952
 20
27.14505688800445
 30
0.0
 10
-8.288973683455003
 20
26.92500870842705
 30
0.0
 10
-8.973235853402851
 20
26.68534684110302
 30
0.0
 10
-9.638651681776363
 20
26.42645447008715
 30
0.0
 10
-10.28378648557206
 20
26.14874350572554
 30
0.0
 10
-10.9072298836168
 20
25.85265543523403
 30
0.0
 10
-11.5075940354833
 20
25.53866336363499
 30
0.0
 10
-12.08351143534322
 20
25.20727564474012
 30
0.0
 10
-12.63362910680082
 20
24.85904375972254
 30
0.0
 10
-13.15659107361989
 20
24.49458261366562
 30
0.0
 10
-13.65105701403348
 20
24.11457463890682
 30
0.0
 10
-14.11571033185523
 20
23.71978088723138
 30
0.0
 10
-14.54928018516662
 20
23.31104128121423
 30
0.0
 10
-14.9505431051706
 20
22.88929634600944
 30
0.0
 10
-15.31834549399515
 20
22.45559494765077
 30
0.0
 10
-15.65163277542901
 20
22.01109449549987
 30
0.0
 10
-15.94947981765408
 20
21.5570506268242
 30
0.0
 10
-16.21112697041683
 20
21.0947949095478
 30
0.0
 10
-16.43598118140196
 20
20.62570159197508
 30
0.0
 10
-16.62370351046017
 20
20.15114760830857
 30
0.0
 10
-16.77390992402861
 20
19.67247131003937
 30
0.0
 10
-16.88722200507197
 20
19.19093943756288
 30
0.0
 10
-16.96125005040547
 20
18.70771761721178
 30
0.0
 10
-16.9980422973008
 20
18.30351715418848
 30
0.0
 10
-16.99604488400006
 20
18.06082580359004
 30
0.0
 10
-16.99537611403183
 20
17.97956836589898
 30
0.0
  0
SPLINE
  5
14D
330
146
100
AcDbEntity
  8
0
  6
Continuous
 62
     7
370
    25
100
AcDbSpline
210
0.0
220
0.0
230
1.0
 70
     8
 71
     3
 72
    23
 73
    19
 74
     0
 42
0.000000001
 43
0.00000001
 40
0.0
 40
0.0
 40
0.0
 40
0.0
 40
0.0019698728252154
 40
0.0693900876426032
 40
0.1367037294153523
 40
0.2041044180704033
 40
0.271819016869221
 40
0.3400646339004434
 40
0.4090418995351827
 40
0.478926170343117
 40
0.5498566771260117
 40
0.6219245199755836
 40
0.6951616059642696
 40
0.7695337446481868
 40
0.8449414055185267
 40
0.9212302842104731
 40
0.9982107683339659
 40
1.0
 40
1.0
 40
1.0
 40
1.0
 10
11.99946883159838
 20
0.072584983384744
 30
0.0
 10
11.99964999263263
 20
0.0770017415157882
 30
0.0
 10
12.00603151121721
 20
0.2325850004380944
 30
0.0
 10
11.98468289106524
 20
0.5396211400177428
 30
0.0
 10
11.93280764578876
 20
0.9903756518633653
 30
0.0
 10
11.84057504691311
 20
1.436395110076242
 30
0.0
 10
11.71396266177235
 20
1.876443413163667
 30
0.0
 10
11.55182569374529
 20
2.309639942227983
 30
0.0
 10
11.35479419435099
 20
2.735113712219767
 30
0.0
 10
11.1228952064204
 20
3.152012309085067
 30
0.0
 10
10.85625740398106
 20
3.559432798249227
 30
0.0
 10
10.55498981957502
 20
3.956347192864059
 30
0.0
 10
10.21943621764972
 20
4.341645310826339
 30
0.0
 10
9.849896809171788
 20
4.713800539597733
 30
0.0
 10
9.448177878391418
 20
5.072138938549622
 30
0.0
 10
9.012122231772297
 20
5.412197163047633
 30
0.0
 10
8.705957342835179
 20
5.634962274273312
 30
0.0
 10
8.539348624356355
 20
5.738741921340747
 30
0.0
 10
8.535564154754658
 20
5.741099246474673
 30
0.0
  0
SPLINE
  5
14E
330
146
100
AcDbEntity
  8
0
  6
Continuous
 62
     7
370
    25
100
AcDbSpline
210
0.0
220
0.0
230
1.0
 70
     8
 71
     3
 72
    22
 73
    18
 74
     0
 42
0.000000001
 43
0.00000001
 40
0.0
 40
0.0
 40
0.0
 40
0.0
 40
0.0329641239154474
 40
0.1117306367133272
 40
0.1901965415168173
 40
0.2681394371366532
 40
0.3453240999084732
 40
0.421531068195719
 40
0.4965866590686691
 40
0.5703858405099076
 40
0.6429021919206486
 40
0.7141846701371863
 40
0.7843453674361283
 40
0.8535437813036424
 40
0.9219718573582977
 40
0.9898419222962634
 40
1.0
 40
1.0
 40
1.0
 40
1.0
 10
-8.532122469984245
 20
5.73906934921301
 30
0.0
 10
-8.600900044827048
 20
5.694948537409872
 30
0.0
 10
-8.83401900313748
 20
5.5454027339868
 30
0.0
 10
-9.20340725389378
 20
5.268129209071935
 30
0.0
 10
-9.638172489949406
 20
4.908778057888857
 30
0.0
 10
-10.03941384129409
 20
4.529489959067537
 30
0.0
 10
-10.40688312115178
 20
4.133628355628464
 30
0.0
 10
-10.73818874163731
 20
3.722758712407155
 30
0.0
 10
-11.03202960799568
 20
3.299165766196833
 30
0.0
 10
-11.28742545997831
 20
2.865035250159725
 30
0.0
 10
-11.50386557814648
 20
2.422532589809503
 30
0.0
 10
-11.68132348814123
 20
1.973687763824129
 30
0.0
 10
-11.81961726431025
 20
1.520393952492457
 30
0.0
 10
-11.920328122182
 20
1.064374941178767
 30
0.0
 10
-11.97933912597303
 20
0.6073254470264754
 30
0.0
 10
-12.0041885124927
 20
0.2790691936152313
 30
0.0
 10
-11.99840109525888
 20
0.1042705487143431
 30
0.0
 10
-11.99764766153644
 20
0.0815144230743338
 30
0.0
  0
SPLINE
  5
151
330
146
100
AcDbEntity
  8
0
  6
Continuous
 62
     7
370
    25
100
AcDbSpline
210
0.0
220
0.0
230
1.0
 70
     8
 71
     3
 72
    18
 73
    14
 74
     0
 42
0.000000001
 43
0.00000001
 40
0.0
 40
0.0
 40
0.0
 40
0.0
 40
0.0774814653284872
 40
0.1755391993505038
 40
0.2737658267070479
 40
0.3725525758749891
 40
0.4722363223394236
 40
0.5730712202187036
 40
0.6752059806591447
 40
0.7786718572624368
 40
0.8833866775405494
 40
0.9891768950212242
 40
0.9999999999999999
 40
0.9999999999999999
 40
0.9999999999999999
 40
0.9999999999999999
 10
9.396922001446512
 20
2.050842628812752
 30
0.0
 10
9.395694545116687
 20
2.149263617173205
 30
0.0
 10
9.392913664547878
 20
2.37224264090273
 30
0.0
 10
9.344931014429644
 20
2.718039656500653
 30
0.0
 10
9.26138016741251
 20
3.085972446862556
 30
0.0
 10
9.14091901389044
 20
3.448761819319789
 30
0.0
 10
8.985229212488811
 20
3.805495535551093
 30
0.0
 10
8.79417116511505
 20
4.155229223190463
 30
0.0
 10
8.567823677442645
 20
4.496699290434363
 30
0.0
 10
8.307510272366493
 20
4.829175614928943
 30
0.0
 10
8.010269104788806
 20
5.149087720556833
 30
0.0
 10
7.787438777202672
 20
5.368134710324401
 30
0.0
 10
7.655932449780143
 20
5.47542633300013
 30
0.0
 10
7.64372709659194
 20
5.485384273234328
 30
0.0
  0
SPLINE
  5
152
330
146
100
AcDbEntity
  8
0
  6
Continuous
 62
     7
370
    25
100
AcDbSpline
210
0.0
220
0.0
230
1.0
 70
     8
 71
     3
 72
    17
 73
    13
 74
     0
 42
0.000000001
 43
0.00000001
 40
0.0
 40
0.0
 40
0.0
 40
0.0
 40
0.0847561760416237
 40
0.1920803202513648
 40
0.298652925705128
 40
0.4041970279143513
 40
0.5084753996459788
 40
0.6113384335799863
 40
0.7127591434740973
 40
0.8128448907808989
 40
0.9118255265416576
 40
1.0
 40
1.0
 40
1.0
 40
1.0
 10
-7.641427983689197
 20
5.485649295879039
 30
0.0
 10
-7.733259907556369
 20
5.40502709783899
 30
0.0
 10
-7.941375777921293
 20
5.222315485043996
 30
0.0
 10
-8.228726292726503
 20
4.918505454279653
 30
0.0
 10
-8.507375471691791
 20
4.579744100174898
 30
0.0
 10
-8.749158671769525
 20
4.228927126267242
 30
0.0
 10
-8.953995554217986
 20
3.868832966886204
 30
0.0
 10
-9.120690622852031
 20
3.501509647745847
 30
0.0
 10
-9.249305344466881
 20
3.129186615027205
 30
0.0
 10
-9.338669046419257
 20
2.753880193926996
 30
0.0
 10
-9.39164100197713
 20
2.390126518489995
 30
0.0
 10
-9.396167869076796
 20
2.151597347642352
 30
0.0
 10
-9.398300614074218
 20
2.039218988688104
 30
0.0
  0
LWPOLYLINE
  5
153
330
146
100
AcDbEntity
  8
0
  6
Continuous
 62
     7
370
    25
100
AcDbPolyline
 90
       49
 70
   128
 43
0.0
 10
-12.0208152802
 20
11.024428911
 10
-11.4165022324
 20
10.6922842028
 10
-10.7846858308
 20
10.3776574488
 10
-10.1268881764
 20
10.0813066125
 10
-9.4446939613
 20
9.8039456289
 10
-8.7397466513
 20
9.5462426849
 10
-8.013744526
 20
9.3088186096
 10
-7.2684365883
 20
9.0922453783
 10
-6.5056183502
 20
8.8970447349
 10
-5.7271275077
 20
8.7236869348
 10
-4.9348395133
 20
8.5725896122
 10
-4.1306630584
 20
8.4441167737
 10
-3.3165354743
 20
8.3385779218
 10
-2.4944180657
 20
8.2562273086
 10
-1.6662913856
 20
8.1972633241
 10
-0.8341504636
 20
8.1618280177
 10
0.0
 20
8.150006756
 10
0.8341504636
 20
8.1618280177
 10
1.6662913856
 20
8.1972633241
 10
2.4944180657
 20
8.2562273086
 10
3.3165354743
 20
8.3385779218
 10
4.1306630584
 20
8.4441167737
 10
4.9348395133
 20
8.5725896122
 10
5.7271275077
 20
8.7236869348
 10
6.5056183502
 20
8.8970447349
 10
7.2684365883
 20
9.0922453783
 10
8.013744526
 20
9.3088186096
 10
8.7397466513
 20
9.5462426849
 10
9.4446939613
 20
9.8039456289
 10
10.1268881764
 20
10.0813066125
 10
10.7846858308
 20
10.3776574488
 10
11.4165022324
 20
10.6922842028
 10
12.0208152802
 20
11.024428911
 10
12.596169131
 20
11.3732914077
 10
13.1411777072
 20
11.7380312527
 10
13.6545280352
 20
12.1177697556
 10
14.1349834091
 20
12.5115920932
 10
14.58138637
 20
12.918549513
 10
14.9926614939
 20
13.3376616188
 10
15.3678179831
 20
13.767918733
 10
15.7059520527
 20
14.2082843284
 10
16.0062491081
 20
14.6576975258
 10
16.2679857074
 20
15.1150756493
 10
16.4905313043
 20
15.5793168351
 10
16.6733497669
 20
16.0493026855
 10
16.8160006694
 20
16.5239009633
 10
16.9181403534
 20
17.0019683198
 10
16.9795227555
 20
17.4823530488
 10
16.9999999768
 20
17.9633851762
  0
LWPOLYLINE
  5
154
330
146
100
AcDbEntity
  8
0
  6
Continuous
 62
     7
370
    25
100
AcDbPolyline
 90
       18
 70
   128
 43
0.0
 10
-16.9999827166
 20
17.9778919831
 10
-17.0
 20
17.9638978615
 10
-16.9795227555
 20
17.4823530488
 10
-16.9181403534
 20
17.0019683198
 10
-16.8160006694
 20
16.5239009633
 10
-16.6733497669
 20
16.0493026855
 10
-16.4905313043
 20
15.5793168351
 10
-16.2679857074
 20
15.1150756493
 10
-16.0062491081
 20
14.6576975258
 10
-15.7059520527
 20
14.2082843284
 10
-15.3678179831
 20
13.767918733
 10
-14.9926614939
 20
13.3376616188
 10
-14.58138637
 20
12.918549513
 10
-14.1349834091
 20
12.5115920932
 10
-13.6545280352
 20
12.1177697556
 10
-13.1411777072
 20
11.7380312527
 10
-12.596169131
 20
11.3732914077
 10
-12.0208152802
 20
11.024428911
  0
LWPOLYLINE
  5
155
330
146
100
AcDbEntity
  8
0
  6
Continuous
 62
     7
370
    25
100
AcDbPolyline
 90
      125
 70
   128
 43
0.0
 10
-11.3137093024
 20
12.249173315
 10
-10.726158265
 20
11.9267529854
 10
-10.1110733332
 20
11.6219259686
 10
-9.4700334211
 20
11.3354747513
 10
-8.804684069
 20
11.0681346496
 10
-8.1167332193
 20
10.8205919217
 10
-7.4079468317
 20
10.5934820063
 10
-6.6801443509
 20
10.3873878912
 10
-5.9351940354
 20
10.2028386171
 10
-5.1750081619
 20
10.0403079194
 10
-4.4015381166
 20
9.9002130119
 10
-3.6167693862
 20
9.7829135163
 10
-2.8227164606
 20
9.6887105388
 10
-2.0214176623
 20
9.617845897
 10
-1.2149299139
 20
9.5705014994
 10
-0.4053234578
 20
9.5467988785
 10
0.4053234578
 20
9.5467988785
 10
1.2149299139
 20
9.5705014994
 10
2.0214176623
 20
9.617845897
 10
2.8227164606
 20
9.6887105388
 10
3.6167693862
 20
9.7829135163
 10
4.4015381166
 20
9.9002130119
 10
5.1750081619
 20
10.0403079194
 10
5.9351940354
 20
10.2028386171
 10
6.6801443509
 20
10.3873878912
 10
7.4079468317
 20
10.5934820063
 10
8.1167332193
 20
10.8205919217
 10
8.804684069
 20
11.0681346496
 10
9.4700334211
 20
11.3354747513
 10
10.1110733332
 20
11.6219259686
 10
10.726158265
 20
11.9267529854
 10
11.3137093024
 20
12.249173315
 10
11.8722182103
 20
12.5883593091
 10
12.4002513043
 20
12.9434402821
 10
12.8964531311
 20
13.3135047463
 10
13.3595499476
 20
13.6976027515
 10
13.788352991
 20
14.0947483236
 10
14.1817615301
 20
14.5039219956
 10
14.5387656907
 20
14.9240734246
 10
14.8584490483
 20
15.3541240879
 10
15.1399909803
 20
15.7929700516
 10
15.3826687726
 20
16.2394848044
 10
15.5858594747
 20
16.6925221493
 10
15.7490414991
 20
17.150919146
 10
15.8717959599
 20
17.6134990959
 10
15.9538077481
 20
18.079074563
 10
15.9948663406
 20
18.5464504218
 10
15.9948663406
 20
19.014426925
 10
15.9538077481
 20
19.4818027837
 10
15.8717959599
 20
19.9473782508
 10
15.7490414991
 20
20.4099582008
 10
15.5858594747
 20
20.8683551975
 10
15.3826687726
 20
21.3213925424
 10
15.1399909803
 20
21.7679072952
 10
14.8584490483
 20
22.2067532588
 10
14.5387656907
 20
22.6368039221
 10
14.1817615301
 20
23.0569553511
 10
13.788352991
 20
23.4661290231
 10
13.3595499476
 20
23.8632745952
 10
12.8964531311
 20
24.2473726004
 10
12.4002513043
 20
24.6174370646
 10
11.8722182103
 20
24.9725180376
 10
11.3137093024
 20
25.3117040318
 10
10.726158265
 20
25.6341243614
 10
10.1110733332
 20
25.9389513781
 10
9.4700334211
 20
26.2254025954
 10
8.804684069
 20
26.4927426971
 10
8.1167332193
 20
26.740285425
 10
7.4079468317
 20
26.9673953404
 10
6.6801443509
 20
27.1734894555
 10
5.9351940354
 20
27.3580387296
 10
5.1750081619
 20
27.5205694274
 10
4.4015381166
 20
27.6606643349
 10
3.6167693862
 20
27.7779638304
 10
2.8227164606
 20
27.872166808
 10
2.0214176623
 20
27.9430314498
 10
1.2149299139
 20
27.9903758473
 10
0.4053234578
 20
28.0140784682
 10
-0.4053234578
 20
28.0140784682
 10
-1.2149299139
 20
27.9903758473
 10
-2.0214176623
 20
27.9430314498
 10
-2.8227164606
 20
27.872166808
 10
-3.6167693862
 20
27.7779638304
 10
-4.4015381166
 20
27.6606643349
 10
-5.1750081619
 20
27.5205694274
 10
-5.9351940354
 20
27.3580387296
 10
-6.6801443509
 20
27.1734894555
 10
-7.4079468317
 20
26.9673953404
 10
-8.1167332193
 20
26.740285425
 10
-8.804684069
 20
26.4927426971
 10
-9.4700334211
 20
26.2254025954
 10
-10.1110733332
 20
25.9389513781
 10
-10.726158265
 20
25.6341243614
 10
-11.3137093024
 20
25.3117040318
 10
-11.8722182103
 20
24.9725180376
 10
-12.4002513043
 20
24.6174370646
 10
-12.8964531311
 20
24.2473726004
 10
-13.3595499476
 20
23.8632745952
 10
-13.788352991
 20
23.4661290231
 10
-14.1817615301
 20
23.0569553511
 10
-14.5387656907
 20
22.6368039221
 10
-14.8584490483
 20
22.2067532588
 10
-15.1399909803
 20
21.7679072952
 10
-15.3826687726
 20
21.3213925424
 10
-15.5858594747
 20
20.8683551975
 10
-15.7490414991
 20
20.4099582008
 10
-15.8717959599
 20
19.9473782508
 10
-15.9538077481
 20
19.4818027837
 10
-15.9948663406
 20
19.014426925
 10
-15.9948663406
 20
18.5464504218
 10
-15.9538077481
 20
18.079074563
 10
-15.8717959599
 20
17.6134990959
 10
-15.7490414991
 20
17.150919146
 10
-15.5858594747
 20
16.6925221493
 10
-15.3826687726
 20
16.2394848044
 10
-15.1399909803
 20
15.7929700516
 10
-14.8584490483
 20
15.3541240879
 10
-14.5387656907
 20
14.9240734246
 10
-14.1817615301
 20
14.5039219956
 10
-13.788352991
 20
14.0947483236
 10
-13.3595499476
 20
13.6976027515
 10
-12.8964531311
 20
13.3135047463
 10
-12.4002513043
 20
12.9434402821
 10
-11.8722182103
 20
12.5883593091
 10
-11.3137093024
 20
12.249173315
  0
LWPOLYLINE
  5
156
330
146
100
AcDbEntity
  8
0
  6
Continuous
 62
     7
370
    25
100
AcDbPolyline
 90
       42
 70
   128
 43
0.0
 10
-8.4852813742
 20
-4.8984486709
 10
-7.9726751721
 20
-5.1774839652
 10
-7.4325855071
 20
-5.4386713997
 10
-6.86687418
 20
-5.6811106072
 10
-6.2774913151
 20
-5.9039658495
 10
-5.6664686372
 20
-6.1064688984
 10
-5.035912468
 20
-6.2879216841
 10
-4.3879964653
 20
-6.4476987011
 10
-3.7249541297
 20
-6.5852491649
 10
-3.0490711056
 20
-6.7000989106
 10
-2.3626773018
 20
-6.7918520275
 10
-1.6681388598
 20
-6.8601922233
 10
-0.9678499976
 20
-6.9048839154
 10
-0.264224756
 20
-6.9257730422
 10
0.4403113232
 20
-6.9227875946
 10
1.1433295579
 20
-6.895937864
 10
1.8424064988
 20
-6.8453164071
 10
2.5351322829
 20
-6.7710977263
 10
3.2191189408
 20
-6.673537669
 10
3.8920086288
 20
-6.5529725449
 10
4.5514817568
 20
-6.4098179669
 10
5.1952649843
 20
-6.2445674185
 10
5.8211390571
 20
-6.0577905525
 10
6.4269464577
 20
-5.8501312276
 10
7.0105988424
 20
-5.6223052884
 10
7.5700842406
 20
-5.3750980982
 10
8.1034739902
 20
-5.1093618313
 10
8.6089293862
 20
-4.8260125357
 10
9.0847080192
 20
-4.5260269751
 10
9.5291697817
 20
-4.2104392619
 10
9.9407825218
 20
-3.8803372924
 10
10.3181273252
 20
-3.5368589963
 10
10.6599034062
 20
-3.1811884146
 10
10.9649325919
 20
-2.8145516174
 10
11.2321633834
 20
-2.4382124777
 10
11.4606745808
 20
-2.0534683145
 10
11.6496784588
 20
-1.6616454207
 10
11.7985234817
 20
-1.2640944908
 10
11.90669655
 20
-0.8621859653
 10
11.9738247687
 20
-0.4573053062
 10
11.9996767329
 20
-0.050848221
 10
12.0
 20
0.0
  0
LWPOLYLINE
  5
158
330
146
100
AcDbEntity
  8
0
  6
Continuous
 62
     7
370
    25
100
AcDbPolyline
 90
       37
 70
   128
 43
0.0
 10
-6.6468037432
 20
-1.7957660959
 10
-6.1929802091
 20
-2.0409741043
 10
-5.7120763483
 20
-2.2683311392
 10
-5.206195031
 20
-2.4768430262
 10
-4.6775483475
 20
-2.6655979958
 10
-4.1284479352
 20
-2.8337706705
 10
-3.5612948705
 20
-2.9806256741
 10
-2.9785691694
 20
-3.105520847
 10
-2.3828189433
 20
-3.2079100544
 10
-1.7766492562
 20
-3.2873455743
 10
-1.1627107339
 20
-3.3434800553
 10
-0.5436879735
 20
-3.3760680358
 10
0.0777121962
 20
-3.3849670167
 10
0.6987725501
 20
-3.3701380851
 10
1.3167773495
 20
-3.3316460841
 10
1.9290242166
 20
-3.2696593294
 10
2.5328359517
 20
-3.1844488734
 10
3.1255722395
 20
-3.0763873197
 10
3.7046411952
 20
-2.9459471939
 10
4.2675106976
 20
-2.7936988776
 10
4.8117194614
 20
-2.6203081139
 10
5.3348878004
 20
-2.4265330965
 10
5.8347280324
 20
-2.2132211542
 10
6.3090544833
 20
-1.981305046
 10
6.7557930442
 20
-1.7317988818
 10
7.1729902411
 20
-1.4657936888
 10
7.5588217767
 20
-1.1844526398
 10
7.9116005079
 20
-0.8890059678
 10
8.2297838231
 20
-0.5807455859
 10
8.5119803876
 20
-0.2610194383
 10
8.7569562277
 20
0.068774394
 10
8.9636401262
 20
0.4071938063
 10
9.1311283072
 20
0.7527589768
 10
9.2586883874
 20
1.1039588369
 10
9.3457625791
 20
1.4592576788
 10
9.3919701288
 20
1.8171018713
 10
9.3999902284
 20
2.0491764742
  0
LWPOLYLINE
  5
15B
330
146
100
AcDbEntity
  8
0
  6
Continuous
 62
     8
370
    25
100
AcDbPolyline
 90
        3
 70
   128
 43
0.0
 10
-3.9508368571
 20
4.7632539326
 10
-3.8423889211
 20
4.685362382
 10
-3.5355339059
 20
4.4913062155
  0
LWPOLYLINE
  5
15C
330
146
100
AcDbEntity
  8
0
  6
Continuous
 62
     8
370
    25
100
AcDbPolyline
 90
       65
 70
   128
 43
0.0
 10
-8.3218422034
 20
4.8043201548
 10
-8.6099783187
 20
4.4924991599
 10
-8.8692435121
 20
4.1621690837
 10
-9.0905292432
 20
3.8227573433
 10
-9.2728879324
 20
3.4757173519
 10
-9.4155386919
 20
3.1225351879
 10
-9.5178706692
 20
2.7647232317
 10
-9.5794456631
 20
2.4038136889
 10
-9.6
 20
2.0413520297
 10
-9.5794456631
 20
1.6788903705
 10
-9.5178706692
 20
1.3179808277
 10
-9.4155386919
 20
0.9601688715
 10
-9.2728879324
 20
0.6069867076
 10
-9.0905292432
 20
0.2599467161
 10
-8.8692435121
 20
-0.0794650243
 10
-8.6099783187
 20
-0.4097951004
 10
-8.3138438763
 20
-0.7296289883
 10
-7.9821082781
 20
-1.03759711
 10
-7.6161920668
 20
-1.3323806988
 10
-7.2176621518
 20
-1.6127174462
 10
-6.7882250994
 20
-1.877406907
 10
-6.329719825
 20
-2.1253156405
 10
-5.8441097185
 20
-2.3553820633
 10
-5.333474237
 20
-2.5666209958
 10
-4.8
 20
-2.7581278803
 10
-4.2459714261
 20
-2.929082655
 10
-3.6737609507
 20
-3.0787532653
 10
-3.0858188669
 20
-3.2064987987
 10
-2.484662833
 20
-3.3117722292
 10
-1.8728670914
 20
-3.3941227598
 10
-1.2530514453
 20
-3.4531977528
 10
-0.6278700406
 20
-3.4887442402
 10
0.0
 20
-3.5006100063
 10
0.6278700406
 20
-3.4887442402
 10
1.2530514453
 20
-3.4531977528
 10
1.8728670914
 20
-3.3941227598
 10
2.484662833
 20
-3.3117722292
 10
3.0858188669
 20
-3.2064987987
 10
3.6737609507
 20
-3.0787532653
 10
4.2459714261
 20
-2.929082655
 10
4.8
 20
-2.7581278803
 10
5.333474237
 20
-2.5666209958
 10
5.8441097185
 20
-2.3553820633
 10
6.329719825
 20
-2.1253156405
 10
6.7882250994
 20
-1.877406907
 10
7.2176621518
 20
-1.6127174462
 10
7.6161920668
 20
-1.3323806988
 10
7.9821082781
 20
-1.03759711
 10
8.3138438763
 20
-0.7296289883
 10
8.6099783187
 20
-0.4097951004
 10
8.8692435121
 20
-0.0794650243
 10
9.0905292432
 20
0.2599467161
 10
9.2728879324
 20
0.6069867076
 10
9.4155386919
 20
0.9601688715
 10
9.5178706692
 20
1.3179808277
 10
9.5794456631
 20
1.6788903705
 10
9.6
 20
2.0413520297
 10
9.5794456631
 20
2.4038136889
 10
9.5178706692
 20
2.7647232317
 10
9.4155386919
 20
3.1225351879
 10
9.2728879324
 20
3.4757173519
 10
9.0905292432
 20
3.8227573433
 10
8.8692435121
 20
4.1621690837
 10
8.6099783187
 20
4.4924991599
 10
8.3593117923
 20
4.7663644479
  0
LWPOLYLINE
  5
15D
330
146
100
AcDbEntity
  8
0
  6
Continuous
 62
     8
370
    25
100
AcDbPolyline
 90
       55
 70
   128
 43
0.0
 10
11.9999946216
 20
0.0750952565
 10
11.9919191933
 20
-0.1725322352
 10
11.9454090563
 20
-0.5783760235
 10
11.8577206196
 20
-0.9819445513
 10
11.7291561635
 20
-1.3818466342
 10
11.5601588763
 20
-1.7767037271
 10
11.3513113266
 20
-2.1651546755
 10
11.1033334552
 20
-2.5458604088
 10
10.8170800932
 20
-2.9175085553
 10
10.4935380153
 20
-3.2788179668
 10
10.1338225379
 20
-3.6285431351
 10
9.7391736749
 20
-3.9654784849
 10
9.3109518627
 20
-4.2884625304
 10
8.8506332706
 20
-4.5963818786
 10
8.359804712
 20
-4.8881750677
 10
7.8401581748
 20
-5.1628362262
 10
7.2934849881
 20
-5.4194185401
 10
6.7216696478
 20
-5.6570375172
 10
6.1266833198
 20
-5.8748740354
 10
5.5105770451
 20
-6.0721771672
 10
4.8754746698
 20
-6.248266768
 10
4.2235655232
 20
-6.4025358202
 10
3.5570968714
 20
-6.5344525265
 10
2.8783661697
 20
-6.6435621428
 10
2.1897131436
 20
-6.7294885456
 10
1.4935117226
 20
-6.7919355287
 10
0.7921618574
 20
-6.8306878245
 10
0.0880812461
 20
-6.8456118457
 10
-0.6163029995
 20
-6.8366561463
 10
-1.318562721
 20
-6.8038515982
 10
-2.0162770836
 20
-6.7473112857
 10
-2.7070409215
 20
-6.6672301149
 10
-3.3884730284
 20
-6.5638841422
 10
-4.0582243669
 20
-6.4376296225
 10
-4.7139861653
 20
-6.2889017813
 10
-5.3534978768
 20
-6.1182133143
 10
-5.9745549721
 20
-5.9261526201
 10
-6.5750165387
 20
-5.7133817715
 10
-7.1528126612
 20
-5.4806342339
 10
-7.7059515567
 20
-5.2287123361
 10
-8.2325264408
 20
-4.9584845052
 10
-8.7307221008
 20
-4.6708822725
 10
-9.198821153
 20
-4.3668970624
 10
-9.6352099631
 20
-4.047576775
 10
-10.0383842084
 20
-3.7140221734
 10
-10.4069540638
 20
-3.3673830894
 10
-10.7396489925
 20
-3.0088544598
 10
-11.0353221264
 20
-2.639672207
 10
-11.2929542188
 20
-2.2611089787
 10
-11.5116571585
 20
-1.8744697609
 10
-11.6906770313
 20
-1.4810873789
 10
-11.8293967184
 20
-1.0823179034
 10
-11.9273380245
 20
-0.6795359753
 10
-11.9841633255
 20
-0.2741300674
 10
-11.9999999994
 20
0.0815841907
  0
LWPOLYLINE
  5
15E
330
146
100
AcDbEntity
  8
0
  6
Continuous
 62
     8
370
    25
100
AcDbPolyline
 90
       43
 70
   128
 43
0.0
 10
-5.939696962
 20
-0.5710212281
 10
-5.5108958435
 20
-0.80185752
 10
-5.0552461945
 20
-1.014863876
 10
-4.5749678941
 20
-1.2090025506
 10
-4.0724008101
 20
-1.3833277197
 10
-3.5499933986
 20
-1.5369900885
 10
-3.0102907762
 20
-1.6692410295
 10
-2.4559223197
 20
-1.7794362293
 10
-1.8895888565
 20
-1.867038828
 10
-1.3140495063
 20
-1.9316220345
 10
-0.7321082391
 20
-1.972871206
 10
-0.1466002141
 20
-1.9905853807
 10
0.4396220324
 20
-1.9846782569
 10
1.0237024846
 20
-1.9551786134
 10
1.6027955612
 20
-1.9022301696
 10
2.1740799789
 20
-1.8260908849
 10
2.7347724974
 20
-1.7271317024
 10
3.2821414793
 20
-1.6058347412
 10
3.8135201978
 20
-1.4627909479
 10
4.3263198292
 20
-1.2986972175
 10
4.8180420653
 20
-1.1143529982
 10
5.2862912848
 20
-0.9106563964
 10
5.7287862245
 20
-0.6885998015
 10
6.1433710936
 20
-0.449265051
 10
6.5280260762
 20
-0.1938181596
 10
6.880877172
 20
0.076496361
 10
7.2002053259
 20
0.3603615656
 10
7.4844548032
 20
0.6563944916
 10
7.732240769
 20
0.9631528963
 10
7.942356035
 20
1.2791422835
 10
8.1137769408
 20
1.6028231847
 10
8.245668341
 20
1.9326186592
 10
8.3373876738
 20
2.2669219764
 10
8.3884880919
 20
2.6041044443
 10
8.3987206393
 20
2.9425233438
 10
8.368035464
 20
3.2805299319
 10
8.296582061
 20
3.6164774747
 10
8.1847085442
 20
3.9487292693
 10
8.0329599501
 20
4.2756666186
 10
7.8420755826
 20
4.5956967165
 10
7.6129854111
 20
4.9072604086
 10
7.34680554
 20
5.2088397879
 10
7.1846448193
 20
5.3703136181
  0
LWPOLYLINE
  5
15F
330
146
100
AcDbEntity
  8
0
  6
Continuous
 62
     8
370
    25
100
AcDbPolyline
 90
       21
 70
   128
 43
0.0
 10
-7.1842009263
 20
5.370736604
 10
-7.2002053259
 20
5.3554241176
 10
-7.4844548032
 20
5.0593911916
 10
-7.732240769
 20
4.7526327869
 10
-7.942356035
 20
4.4366433997
 10
-8.1137769408
 20
4.1129624985
 10
-8.245668341
 20
3.783167024
 10
-8.3373876738
 20
3.4488637068
 10
-8.3884880919
 20
3.1116812389
 10
-8.3987206393
 20
2.7732623394
 10
-8.368035464
 20
2.4352557513
 10
-8.296582061
 20
2.0993082085
 10
-8.1847085442
 20
1.7670564139
 10
-8.0329599501
 20
1.4401190646
 10
-7.8420755826
 20
1.1200889667
 10
-7.6129854111
 20
0.8085252746
 10
-7.34680554
 20
0.5069458953
 10
-7.0448327707
 20
0.2168200931
 10
-6.7085382844
 20
-0.060438668
 10
-6.3395604739
 20
-0.3234796114
 10
-5.939696962
 20
-0.5710212281
  0
LINE
  5
160
330
146
100
AcDbEntity
  8
0
  6
Continuous
 62
     7
370
    25
100
AcDbLine
 10
-12.0
 20
0.0816540812
 30
0.0
 11
-12.0
 21
0.0
 31
0.0
  0
LINE
  5
161
330
146
100
AcDbEntity
  8
0
  6
Continuous
 62
     7
370
    25
100
AcDbLine
 10
12.0
 20
0.0
 30
0.0
 11
12.0
 21
0.0816540812
 31
0.0
  0
ARC
  5
162
330
146
100
AcDbEntity
  8
0
  6
Continuous
 62
     7
370
    25
100
AcDbCircle
 10
-6.0267961545
 20
0.5757144355
 30
0.0
 40
6.000884209106217
100
AcDbArc
 50
185.5053252673
 51
245.8148156903
  0
ARC
  5
163
330
146
100
AcDbEntity
  8
0
  6
Continuous
 62
     7
370
    25
100
AcDbCircle
 10
-4.7030083672
 20
2.5054496818
 30
0.0
 40
4.720042121556924
100
AcDbArc
 50
185.6648263888
 51
245.6809490459
  0
ARC
  5
164
330
146
100
AcDbEntity
  8
0
  6
Continuous
 62
     8
370
    25
100
AcDbCircle
 10
-0.025884707
 20
11.0811290369
 30
0.0
 40
7.466150434926656
100
AcDbArc
 50
241.9608476959
 51
302.0980786375
  0
VIEWPORT
  5
1B4
330
146
100
AcDbEntity
  8
0
100
AcDbViewport
 10
0.0
 20
0.0
 30
0.0
 40
205.6
 41
156.0
 68
     1
 69
     1
 12
0.0
 22
13.0
 13
0.0
 23
0.0
 14
10.0
 24
10.0
 15
10.0
 25
10.0
 16
0.0
 26
0.0
 36
1.0
 17
0.0
 27
0.0
 37
0.0
 42
50.0
 43
0.0
 44
0.0
 45
29.4093385214
 50
0.0
 51
0.0
 72
   100
 90
   557152
  1

281
     0
 71
     1
 74
     0
110
0.0
120
0.0
130
0.0
111
1.0
121
0.0
131
0.0
112
0.0
122
1.0
132
0.0
 79
     0
146
0.0
  0
ENDBLK
  5
149
330
146
100
AcDbEntity
  8
0
100
AcDbBlockEnd
  0
BLOCK
  5
167
330
165
100
AcDbEntity
  8
0
100
AcDbBlockBegin
  2
*Paper_Space5
 70
     0
 10
0.0
 20
0.0
 30
0.0
  3
*Paper_Space5
  1

  0
SPLINE
  5
169
330
165
100
AcDbEntity
  8
0
  6
Continuous
 62
     7
370
    25
100
AcDbSpline
210
0.0
220
0.0
230
1.0
 70
     8
 71
     3
 72
    76
 73
    72
 74
     0
 42
0.000000001
 43
0.00000001
 40
0.0
 40
0.0
 40
0.0
 40
0.0
 40
0.0079542523084125
 40
0.0229829821929551
 40
0.037990579907265
 40
0.0529784417231961
 40
0.06794891318781
 40
0.0829044017476089
 40
0.0978473372830351
 40
0.1127801491699425
 40
0.1277052549995198
 40
0.1426250574770137
 40
0.1575419469380804
 40
0.1724583075723986
 40
0.187376113193774
 40
0.2022973778203006
 40
0.2172245156718167
 40
0.2321599676070585
 40
0.2471062078121027
 40
0.2620657470358199
 40
0.2770411303883371
 40
0.2920349271126371
 40
0.3070497087991977
 40
0.3220880112241704
 40
0.3371522732724388
 40
0.3522447441877949
 40
0.3673673476552344
 40
0.3825214880842567
 40
0.397707781341508
 40
0.4129256900586196
 40
0.4281730444828704
 40
0.4434454371241751
 40
0.4587354985856142
 40
0.4740299005458545
 40
0.4893088702668147
 40
0.5045500304205973
 40
0.5197261450075047
 40
0.5348062848445639
 40
0.5497580911145068
 40
0.564550986829003
 40
0.5791598027492363
 40
0.593568025841051
 40
0.6077699345470299
 40
0.6217712535962685
 40
0.6355884333953632
 40
0.6492469896323666
 40
0.662779420093645
 40
0.6762231018039896
 40
0.6896183823892071
 40
0.7030013775488785
 40
0.7164055528251871
 40
0.7298714762160193
 40
0.743436948072388
 40
0.7571354616172985
 40
0.7709945653823963
 40
0.7850342209655059
 40
0.7992653728544324
 40
0.813689051763296
 40
0.8282963560409025
 40
0.843069537863935
 40
0.8579841574630604
 40
0.8730119499003035
 40
0.8881238305150758
 40
0.9032924641672154
 40
0.9184940282189789
 40
0.9337089801970362
 40
0.9489185097275389
 40
0.9641130816548358
 40
0.9792864253690312
 40
0.9944348433022345
 40
0.9999999999999999
 40
0.9999999999999999
 40
0.9999999999999999
 40
0.9999999999999999
 10
-8.457659392742617
 20
7.465071043638812
 30
0.0
 10
-8.324938526347385
 20
7.429643184572007
 30
0.0
 10
-7.94145542941706
 20
7.327278081920479
 30
0.0
 10
-7.295413298067358
 20
7.172228665685223
 30
0.0
 10
-6.516421572175488
 20
7.006297034317329
 30
0.0
 10
-5.725514851796813
 20
6.859778244052626
 30
0.0
 10
-4.924423114491723
 20
6.732497130288818
 30
0.0
 10
-4.1145084088365
 20
6.624658719702631
 30
0.0
 10
-3.297245308140461
 20
6.536345512822392
 30
0.0
 10
-2.474094691802026
 20
6.46765101189435
 30
0.0
 10
-1.646535172863528
 20
6.418642411113851
 30
0.0
 10
-0.8160517368788417
 20
6.389369253137651
 30
0.0
 10
0.0158646159097173
 20
6.379860108800532
 30
0.0
 10
0.8477128164595029
 20
6.390122733991109
 30
0.0
 10
1.677985267007604
 20
6.420142774197974
 30
0.0
 10
2.505178414223052
 20
6.469883509251659
 30
0.0
 10
3.327803682453034
 20
6.539287288648182
 30
0.0
 10
4.144389860183106
 20
6.628277322423547
 30
0.0
 10
4.953478901808409
 20
6.7367586319189
 30
0.0
 10
5.753628557856828
 20
6.864619594987671
 30
0.0
 10
6.54341463136108
 20
7.011733812391141
 30
0.0
 10
7.321432723947258
 20
7.177962263106341
 30
0.0
 10
8.086299306955551
 20
7.363155688857207
 30
0.0
 10
8.836651916050993
 20
7.567157106777586
 30
0.0
 10
9.571148225512319
 20
7.789804286712414
 30
0.0
 10
10.288463714341
 20
8.030931938507614
 30
0.0
 10
10.98728759930079
 20
8.290373225363126
 30
0.0
 10
11.66631669712432
 20
8.56796004288206
 30
0.0
 10
12.32424692042851
 20
8.863521275209951
 30
0.0
 10
12.95976226032234
 20
9.176877967754036
 30
0.0
 10
13.57152144179152
 20
9.507834078297252
 30
0.0
 10
14.15814305299566
 20
9.856161272885016
 30
0.0
 10
14.71816410650715
 20
10.22155878013133
 30
0.0
 10
15.25001412645349
 20
10.60360208736675
 30
0.0
 10
15.75205454239008
 20
11.00171759028313
 30
0.0
 10
16.22262145242063
 20
11.41515957652193
 30
0.0
 10
16.66007986716145
 20
11.84299580711224
 30
0.0
 10
17.06285976612131
 20
12.28407040256617
 30
0.0
 10
17.4295382815305
 20
12.73701415029372
 30
0.0
 10
17.75892456736333
 20
13.20028616533913
 30
0.0
 10
18.05012757379381
 20
13.67224238120886
 30
0.0
 10
18.30258911766694
 20
14.15121711671673
 30
0.0
 10
18.51607438201951
 20
14.63559956820292
 30
0.0
 10
18.69062484352662
 20
15.12389018013876
 30
0.0
 10
18.82648816647507
 20
15.61473053045799
 30
0.0
 10
18.92404194588952
 20
16.10690962309703
 30
0.0
 10
18.98372412830728
 20
16.59935491499247
 30
0.0
 10
19.00597631139317
 20
17.09111674143739
 30
0.0
 10
18.99120266930717
 20
17.58128427575013
 30
0.0
 10
18.93976955289085
 20
18.06894094629306
 30
0.0
 10
18.85200394534768
 20
18.55326054481078
 30
0.0
 10
18.72815009702925
 20
19.03356112220285
 30
0.0
 10
18.56832221810861
 20
19.50930454989332
 30
0.0
 10
18.3725281186588
 20
19.97995508618108
 30
0.0
 10
18.14070228119708
 20
20.44493474577713
 30
0.0
 10
17.87276040390343
 20
20.90357877819212
 30
0.0
 10
17.56867229644082
 20
21.35509948019212
 30
0.0
 10
17.22854409749658
 20
21.79856773916531
 30
0.0
 10
16.85269528044248
 20
22.23291981801759
 30
0.0
 10
16.44171377053571
 20
22.65699155613256
 30
0.0
 10
15.99647582979006
 20
23.06957445890519
 30
0.0
 10
15.51812687422475
 20
23.46948186659237
 30
0.0
 10
15.00802847983117
 20
23.85560894980826
 30
0.0
 10
14.46769260260444
 20
24.22697971373009
 30
0.0
 10
13.89869900659957
 20
24.58275478493596
 30
0.0
 10
13.30273978550137
 20
24.9222496083497
 30
0.0
 10
12.68132763550416
 20
25.24479014124485
 30
0.0
 10
12.03649997085225
 20
25.55033224141217
 30
0.0
 10
11.36804372046522
 20
25.83704881116622
 30
0.0
 10
10.82758942871568
 20
26.05278176776383
 30
0.0
 10
10.50344304432554
 20
26.16666713751466
 30
0.0
 10
10.4163539998567
 20
26.19726494303774
 30
0.0
  0
SPLINE
  5
16A
330
165
100
AcDbEntity
  8
0
  6
Continuous
 62
     7
370
    25
100
AcDbSpline
210
0.0
220
0.0
230
1.0
 70
     8
 71
     3
 72
    55
 73
    51
 74
     0
 42
0.000000001
 43
0.00000001
 40
0.0
 40
0.0
 40
0.0
 40
0.0
 40
0.0042565056994323
 40
0.0263513490985354
 40
0.048492768180389
 40
0.0706810399007481
 40
0.0929144903322184
 40
0.1151887200581944
 40
0.1374956450790109
 40
0.1598223829657525
 40
0.1821433588622217
 40
0.204429216274903
 40
0.2266442485858433
 40
0.248746172267729
 40
0.2706884837912641
 40
0.2924243941062424
 40
0.3139118907186067
 40
0.3351189506661111
 40
0.3560277186909152
 40
0.3766367559477042
 40
0.3969611123983202
 40
0.4170306158541052
 40
0.4368871064954132
 40
0.4565813277839651
 40
0.4761699518172884
 40
0.4957129402912068
 40
0.5152549009434348
 40
0.5348526016943043
 40
0.5545638605152838
 40
0.5744415418892572
 40
0.5945312483056929
 40
0.6148689003914968
 40
0.6354784188860895
 40
0.656369896086023
 40
0.6775387601332575
 40
0.6989663921230747
 40
0.7206223895954147
 40
0.7424682281244435
 40
0.7644616395827577
 40
0.7865608263312037
 40
0.808727767286304
 40
0.8309302464228489
 40
0.8531398368301337
 40
0.8753351157808025
 40
0.8975042575739485
 40
0.9196397801858095
 40
0.94173756152094
 40
0.9637959805739204
 40
0.9858152190194702
 40
1.0
 40
1.0
 40
1.0
 40
1.0
 10
-10.43866186916006
 20
26.19018647672896
 30
0.0
 10
-10.48441490476967
 20
26.17426837151264
 30
0.0
 10
-10.76766466379788
 20
26.07572191647134
 30
0.0
 10
-11.26922487852759
 20
25.87702007289373
 30
0.0
 10
-11.94109393522881
 20
25.59323583562099
 30
0.0
 10
-12.58954717178245
 20
25.28996324089903
 30
0.0
 10
-13.21551241323882
 20
24.96939984042561
 30
0.0
 10
-13.81702820322682
 20
24.63121173630064
 30
0.0
 10
-14.39285487569193
 20
24.2757921410229
 30
0.0
 10
-14.94143131622685
 20
23.9034538753158
 30
0.0
 10
-15.46116920242099
 20
23.51468820358349
 30
0.0
 10
-15.95040394303913
 20
23.11014051387485
 30
0.0
 10
-16.40748656163606
 20
22.69062514132013
 30
0.0
 10
-16.83079960102535
 20
22.2571658780204
 30
0.0
 10
-17.2188233714779
 20
21.81100983142921
 30
0.0
 10
-17.57022108460152
 20
21.3536039326727
 30
0.0
 10
-17.88391921833254
 20
20.88654114854224
 30
0.0
 10
-18.15916264827158
 20
20.4114844876378
 30
0.0
 10
-18.39553035182191
 20
19.93008534229591
 30
0.0
 10
-18.59290909137598
 20
19.44391390243337
 30
0.0
 10
-18.75143475252363
 20
18.95441353300113
 30
0.0
 10
-18.8714177709802
 20
18.46288141511162
 30
0.0
 10
-18.95326844801324
 20
17.97046969919703
 30
0.0
 10
-18.99743230878376
 20
17.4781981233624
 30
0.0
 10
-19.00433915458654
 20
16.98697047159114
 30
0.0
 10
-18.97437340759814
 20
16.49772711220479
 30
0.0
 10
-18.90788796487245
 20
16.01134684414612
 30
0.0
 10
-18.80518749252301
 20
15.52862096124657
 30
0.0
 10
-18.66646013028315
 20
15.05013948493099
 30
0.0
 10
-18.49177346292563
 20
14.57643436924387
 30
0.0
 10
-18.28109975265606
 20
14.10805325169714
 30
0.0
 10
-18.03435792743735
 20
13.64560484060322
 30
0.0
 10
-17.75147640408798
 20
13.18980111291592
 30
0.0
 10
-17.43247128408334
 20
12.74148728622607
 30
0.0
 10
-17.07752841193793
 20
12.30165052304034
 30
0.0
 10
-16.68707329986374
 20
11.87140167122221
 30
0.0
 10
-16.26181289671706
 20
11.45193089911633
 30
0.0
 10
-15.80273913587038
 20
11.0444457521894
 30
0.0
 10
-15.31109462260154
 20
10.65010554324226
 30
0.0
 10
-14.78831128850013
 20
10.2699664434782
 30
0.0
 10
-14.23593881867747
 20
9.904946867446947
 30
0.0
 10
-13.65560292536853
 20
9.55583067832954
 30
0.0
 10
-13.04895686785445
 20
9.223267027898078
 30
0.0
 10
-12.41761498871627
 20
8.90777105831917
 30
0.0
 10
-11.76311902453065
 20
8.60972924136641
 30
0.0
 10
-11.08690184478239
 20
8.329474803858526
 30
0.0
 10
-10.39047060635187
 20
8.067171302089013
 30
0.0
 10
-9.674909843716094
 20
7.823409685552082
 30
0.0
 10
-9.029190797533564
 20
7.62376455075638
 30
0.0
 10
-8.618549267775059
 20
7.509744316733827
 30
0.0
 10
-8.457659392742617
 20
7.465071043638812
 30
0.0
  0
SPLINE
  5
16B
330
165
100
AcDbEntity
  8
0
  6
Continuous
 62
     7
370
    25
100
AcDbSpline
210
0.0
220
0.0
230
1.0
 70
     8
 71
     3
 72
    75
 73
    71
 74
     0
 42
0.000000001
 43
0.00000001
 40
0.0
 40
0.0
 40
0.0
 40
0.0
 40
0.0130968781087461
 40
0.0271238527192816
 40
0.0411759909223714
 40
0.0552909885683691
 40
0.0695012022098496
 40
0.0838312857556735
 40
0.0982964992113673
 40
0.1129019645520457
 40
0.127643077688592
 40
0.1425070825341786
 40
0.1574755270679817
 40
0.1725270862405342
 40
0.1876401802854347
 40
0.2027949637048883
 40
0.2179745164718609
 40
0.2331653033741259
 40
0.2483551239609914
 40
0.2635368068428268
 40
0.2787061526873454
 40
0.2938606827626829
 40
0.3089991975488887
 40
0.324121419003591
 40
0.339227713670542
 40
0.3543188854611473
 40
0.3693960247339111
 40
0.3844604010216625
 40
0.3995133886584595
 40
0.4145564167103231
 40
0.4295909365907246
 40
0.4446184023896956
 40
0.459640260244827
 40
0.4746579440702947
 40
0.4896728756902572
 40
0.5046864679484458
 40
0.5197001297305974
 40
0.5347148923850682
 40
0.5497320837075478
 40
0.5647531343351899
 40
0.57977949343528
 40
0.5948126329472796
 40
0.6098540494068548
 40
0.6249052620556502
 40
0.6399678054888625
 40
0.6550432144347988
 40
0.6701329973577437
 40
0.6852385943665193
 40
0.7003613133385436
 40
0.7155022362047685
 40
0.7306620850406956
 40
0.7458410352170484
 40
0.7610384609972182
 40
0.7762525989108621
 40
0.7914801183407326
 40
0.806715600874013
 40
0.8219479971371325
 40
0.837164373233366
 40
0.8523484812810913
 40
0.8674804484735013
 40
0.8825376068508618
 40
0.8974962428069685
 40
0.9123342536370335
 40
0.9270343642221621
 40
0.9415872459468089
 40
0.955993786503184
 40
0.9702659744803628
 40
0.9844262768994104
 40
0.9985057713893242
 40
0.9999999999999999
 40
0.9999999999999999
 40
0.9999999999999999
 40
0.9999999999999999
 10
16.99885317480481
 20
18.85947316695902
 30
0.0
 10
16.99618587883505
 20
18.9961413679452
 30
0.0
 10
16.99066186445227
 20
19.2791834886841
 30
0.0
 10
16.93664308958471
 20
19.70712555650693
 30
0.0
 10
16.84808548394061
 20
20.1420159574602
 30
0.0
 10
16.72245236594441
 20
20.57345695264405
 30
0.0
 10
16.56087849081808
 20
21.00087695009725
 30
0.0
 10
16.36310186353573
 20
21.4236337098323
 30
0.0
 10
16.12924150139052
 20
21.84097747255082
 30
0.0
 10
15.8594108367968
 20
22.25202996206607
 30
0.0
 10
15.55391351073163
 20
22.6557920790605
 30
0.0
 10
15.21325849543372
 20
23.05117679163547
 30
0.0
 10
14.83818732962879
 20
23.43705954540388
 30
0.0
 10
14.42965749913327
 20
23.81233333031604
 30
0.0
 10
13.98880498729214
 20
24.17595588161728
 30
0.0
 10
13.51689493114414
 20
24.52698082639838
 30
0.0
 10
13.01527404769043
 20
24.86457074558993
 30
0.0
 10
12.48535577203972
 20
25.18798116892198
 30
0.0
 10
11.92857599440116
 20
25.496566789671
 30
0.0
 10
11.34637160685664
 20
25.78976944814098
 30
0.0
 10
10.74014794706508
 20
26.06711124883909
 30
0.0
 10
10.11130556064997
 20
26.3281644338202
 30
0.0
 10
9.461253896752153
 20
26.57253702561009
 30
0.0
 10
8.791416190322618
 20
26.7998665848822
 30
0.0
 10
8.103233686399562
 20
27.00981648914611
 30
0.0
 10
7.398168788226483
 20
27.2020741036912
 30
0.0
 10
6.67770701616186
 20
27.37635027863725
 30
0.0
 10
5.94335782931409
 20
27.53237971390918
 30
0.0
 10
5.196654438805794
 20
27.66992184440447
 30
0.0
 10
4.439152767069462
 20
27.78876199290607
 30
0.0
 10
3.672429705807151
 20
27.88871261345451
 30
0.0
 10
2.898080810952043
 20
27.96961450395063
 30
0.0
 10
2.117717554438177
 20
28.03133790693601
 30
0.0
 10
1.332964234336196
 20
28.07378344540832
 30
0.0
 10
0.5454546284086644
 20
28.09688285934822
 30
0.0
 10
-0.2431715356082014
 20
28.10059952108029
 30
0.0
 10
-1.031265591362108
 20
28.08492884731436
 30
0.0
 10
-1.817178768150031
 20
28.04989900900676
 30
0.0
 10
-2.599267702723497
 20
27.9955708187918
 30
0.0
 10
-3.37590477100723
 20
27.92203639416856
 30
0.0
 10
-4.145476620917428
 20
27.8294183199438
 30
0.0
 10
-4.90638610269615
 20
27.71786873263839
 30
0.0
 10
-5.657055575466853
 20
27.58756807782981
 30
0.0
 10
-6.395929944901185
 20
27.43872361976704
 30
0.0
 10
-7.121479342803989
 20
27.27156772354474
 30
0.0
 10
-7.832201340951651
 20
27.08635594743491
 30
0.0
 10
-8.526622568928042
 20
26.88336500988638
 30
0.0
 10
-9.20329958016367
 20
26.6628907363542
 30
0.0
 10
-9.860818784594768
 20
26.42524615092919
 30
0.0
 10
-10.49779524610929
 20
26.17075996318706
 30
0.0
 10
-11.11287013930515
 20
25.89977581853253
 30
0.0
 10
-11.70470669286309
 20
25.61265283503064
 30
0.0
 10
-12.27198454771159
 20
25.30976813906554
 30
0.0
 10
-12.81339267779462
 20
24.9915223143607
 30
0.0
 10
-13.32762141582248
 20
24.65834884752486
 30
0.0
 10
-13.81332334911247
 20
24.3107511566287
 30
0.0
 10
-14.2691322706736
 20
23.94931717648372
 30
0.0
 10
-14.69367386701351
 20
23.57474472362908
 30
0.0
 10
-15.08560540694793
 20
23.18784551387354
 30
0.0
 10
-15.4436277786789
 20
22.78958023299823
 30
0.0
 10
-15.76652814124098
 20
22.38107507879431
 30
0.0
 10
-16.05323514388789
 20
21.9636157358095
 30
0.0
 10
-16.30289129498626
 20
21.53861635719165
 30
0.0
 10
-16.51485823165564
 20
21.10756520941511
 30
0.0
 10
-16.6888961165366
 20
20.67195249027201
 30
0.0
 10
-16.82456749158318
 20
20.23320660260368
 30
0.0
 10
-16.92333008842473
 20
19.79261025936086
 30
0.0
 10
-16.98058122568474
 20
19.35136625545929
 30
0.0
 10
-17.00457614012853
 20
19.04109429445802
 30
0.0
 10
-16.99880132336269
 20
18.87867200663261
 30
0.0
 10
-16.99824725569518
 20
18.86308831942355
 30
0.0
  0
SPLINE
  5
16C
330
165
100
AcDbEntity
  8
0
  6
Continuous
 62
     7
370
    25
100
AcDbSpline
210
0.0
220
0.0
230
1.0
 70
     8
 71
     3
 72
     9
 73
     5
 74
     0
 42
0.000000001
 43
0.00000001
 40
0.0
 40
0.0
 40
0.0
 40
0.0
 40
0.0815289421147385
 40
1.0
 40
1.0
 40
1.0
 40
1.0
 10
4.926269962838792
 20
6.413969575832343
 30
0.0
 10
4.929219779563226
 20
6.423694613615133
 30
0.0
 10
4.965401001199602
 20
6.542977870953421
 30
0.0
 10
5.010527404820655
 20
6.654000303772548
 30
0.0
 10
5.051974700493042
 20
6.755971195092927
 30
0.0
  0
SPLINE
  5
16D
330
165
100
AcDbEntity
  8
0
  6
Continuous
 62
     7
370
    25
100
AcDbSpline
210
0.0
220
0.0
230
1.0
 70
     8
 71
     3
 72
     9
 73
     5
 74
     0
 42
0.000000001
 43
0.00000001
 40
0.0
 40
0.0
 40
0.0
 40
0.0
 40
0.2397574257950507
 40
1.0
 40
1.0
 40
1.0
 40
1.0
 10
-5.050817086781588
 20
6.756056804281671
 30
0.0
 10
-5.039909204019337
 20
6.729878306283685
 30
0.0
 10
-4.994413709036942
 20
6.620690872730058
 30
0.0
 10
-4.957251035599159
 20
6.502444768854909
 30
0.0
 10
-4.928998389080482
 20
6.41254904645516
 30
0.0
  0
SPLINE
  5
16E
330
165
100
AcDbEntity
  8
0
  6
Continuous
 62
     7
370
    25
100
AcDbSpline
210
0.0
220
0.0
230
1.0
 70
     8
 71
     3
 72
    29
 73
    25
 74
     0
 42
0.000000001
 43
0.00000001
 40
0.0
 40
0.0
 40
0.0
 40
0.0
 40
0.0081448833167165
 40
0.0523618814416245
 40
0.0965048213077593
 40
0.1407543457112831
 40
0.1853099303490141
 40
0.2303662847079602
 40
0.2761086798989671
 40
0.3227048039899699
 40
0.3702925313058285
 40
0.418964020990472
 40
0.4687486041775358
 40
0.5195996826698339
 40
0.5713927334509432
 40
0.6239397442102083
 40
0.677018752537897
 40
0.7304091715137432
 40
0.7839130772304586
 40
0.8373571243200871
 40
0.8906590789965629
 40
0.9437741379779995
 40
0.9938711980377104
 40
1.0
 40
1.0
 40
1.0
 40
1.0
 10
11.99722165563242
 20
0.0856667732088354
 30
0.0
 10
11.99809705338756
 20
0.1118346081355939
 30
0.0
 10
12.00372481644887
 20
0.2800625638641596
 30
0.0
 10
11.97829317623262
 20
0.5902005654122386
 30
0.0
 10
11.91939769298915
 20
1.0123246338089
 30
0.0
 10
11.82155674019961
 20
1.428738984310044
 30
0.0
 10
11.68954492336591
 20
1.83840376893022
 30
0.0
 10
11.5225858100142
 20
2.240608839637068
 30
0.0
 10
11.32113276180211
 20
2.634742631948116
 30
0.0
 10
11.08504173567727
 20
3.020249580305223
 30
0.0
 10
10.81413358338613
 20
3.396522321201651
 30
0.0
 10
10.50818540461154
 20
3.76279622773071
 30
0.0
 10
10.16715692417019
 20
4.118059477999623
 30
0.0
 10
9.791396512444223
 20
4.461017430912649
 30
0.0
 10
9.38182552225705
 20
4.790138506476329
 30
0.0
 10
8.940013161980389
 20
5.10378296604689
 30
0.0
 10
8.4681076103954
 20
5.400378190231761
 30
0.0
 10
7.968667824879734
 20
5.6785647097078
 30
0.0
 10
7.4445024015496
 20
5.937265025553277
 30
0.0
 10
6.898331074332224
 20
6.175766303015005
 30
0.0
 10
6.332664268999362
 20
6.393713687211177
 30
0.0
 10
5.759863835035788
 20
6.587369739240629
 30
0.0
 10
5.348056372111479
 20
6.709456169008958
 30
0.0
 10
5.133138897935545
 20
6.768190928929007
 30
0.0
 10
5.109712193744789
 20
6.774593208928056
 30
0.0
  0
SPLINE
  5
16F
330
165
100
AcDbEntity
  8
0
  6
Continuous
 62
     7
370
    25
100
AcDbSpline
210
0.0
220
0.0
230
1.0
 70
     8
 71
     3
 72
    28
 73
    24
 74
     0
 42
0.000000001
 43
0.00000001
 40
0.0
 40
0.0
 40
0.0
 40
0.0
 40
0.0298594949120146
 40
0.0828572058700651
 40
0.1361111131825965
 40
0.1896353537120926
 40
0.2434296176391473
 40
0.2974706447612072
 40
0.3517011270766958
 40
0.4059968696495374
 40
0.4601508173645024
 40
0.5139291070873003
 40
0.5670667818581966
 40
0.6193083212083752
 40
0.6704537412531454
 40
0.7203916252925491
 40
0.7691077239966162
 40
0.8166718281268023
 40
0.8632142597853131
 40
0.9089026418990097
 40
0.9539243986906297
 40
0.9984758696264201
 40
1.0
 40
1.0
 40
1.0
 40
1.0
 10
-5.124060493823092
 20
6.767693194679324
 30
0.0
 10
-5.238425229267838
 20
6.736900387792953
 30
0.0
 10
-5.55577629153272
 20
6.651453331604646
 30
0.0
 10
-6.058908066025038
 20
6.488812073160556
 30
0.0
 10
-6.633765667174442
 20
6.281371972249831
 30
0.0
 10
-7.190508736806
 20
6.051827780612417
 30
0.0
 10
-7.72833288029642
 20
5.801183587576502
 30
0.0
 10
-8.245049260154413
 20
5.528933966480723
 30
0.0
 10
-8.738488197030408
 20
5.23513270503113
 30
0.0
 10
-9.205973542288863
 20
4.92004965627566
 30
0.0
 10
-9.64456261063856
 20
4.584431224023468
 30
0.0
 10
-10.05120706952829
 20
4.229545219650134
 30
0.0
 10
-10.4230561248728
 20
3.857155867115652
 30
0.0
 10
-10.75767224745122
 20
3.46948059225727
 30
0.0
 10
-11.05326738160314
 20
3.068993057455387
 30
0.0
 10
-11.3088114763862
 20
2.658193125897691
 30
0.0
 10
-11.52390896919836
 20
2.239434827178605
 30
0.0
 10
-11.69881678591026
 20
1.814848032635891
 30
0.0
 10
-11.83355926492894
 20
1.386371074985572
 30
0.0
 10
-11.93028789462984
 20
0.9557294244673646
 30
0.0
 10
-11.98406510104334
 20
0.5247403452327444
 30
0.0
 10
-12.00592163032349
 20
0.2318472212876656
 30
0.0
 10
-11.99959380819154
 20
0.0840017642247774
 30
0.0
 10
-11.9993844907733
 20
0.0791111986043237
 30
0.0
  0
SPLINE
  5
172
330
165
100
AcDbEntity
  8
0
  6
Continuous
 62
     7
370
    25
100
AcDbSpline
210
0.0
220
0.0
230
1.0
 70
     8
 71
     3
 72
    16
 73
    12
 74
     0
 42
0.000000001
 43
0.00000001
 40
0.0
 40
0.0
 40
0.0
 40
0.0
 40
0.0939793657749761
 40
0.2273492280414924
 40
0.3773544674276315
 40
0.521855794661097
 40
0.6477155570394997
 40
0.7608742505489998
 40
0.8653112085847854
 40
0.9729429431293668
 40
1.0
 40
1.0
 40
1.0
 40
1.0
 10
-4.926994343700429
 20
6.414724945492454
 30
0.0
 10
-4.917055725100799
 20
6.384102130923917
 30
0.0
 10
-4.893012816875236
 20
6.310021260136983
 30
0.0
 10
-4.86703153665146
 20
6.15167276295476
 30
0.0
 10
-4.86235894427538
 20
5.962264617034587
 30
0.0
 10
-4.885634812853088
 20
5.78273521532402
 30
0.0
 10
-4.923428602482943
 20
5.643510680941945
 30
0.0
 10
-4.962487344999263
 20
5.547415941997492
 30
0.0
 10
-4.992597953499957
 20
5.490129740547702
 30
0.0
 10
-5.009923975624107
 20
5.465792107444631
 30
0.0
 10
-5.00657069698503
 20
5.469967596595667
 30
0.0
 10
-5.005897071140686
 20
5.470806392803095
 30
0.0
  0
SPLINE
  5
173
330
165
100
AcDbEntity
  8
0
  6
Continuous
 62
     7
370
    25
100
AcDbSpline
210
0.0
220
0.0
230
1.0
 70
     8
 71
     3
 72
    16
 73
    12
 74
     0
 42
0.000000001
 43
0.00000001
 40
0.0
 40
0.0
 40
0.0
 40
0.0
 40
0.0143362763501277
 40
0.1160054534563922
 40
0.2220143768436042
 40
0.3345193466212755
 40
0.456354022120593
 40
0.5912387147561963
 40
0.7430422109675846
 40
0.8854795589716883
 40
1.0
 40
1.0
 40
1.0
 40
1.0
 10
5.006771189670998
 20
5.469656988872714
 30
0.0
 10
5.007222108161664
 20
5.469107314536967
 30
0.0
 10
5.010870824376672
 20
5.464659491475094
 30
0.0
 10
4.996028614240025
 20
5.484622537875202
 30
0.0
 10
4.968454318277991
 20
5.535078084846566
 30
0.0
 10
4.929835728817084
 20
5.625385854509184
 30
0.0
 10
4.891993756915909
 20
5.75462281227338
 30
0.0
 10
4.865160950684676
 20
5.92492622301817
 30
0.0
 10
4.863647634160134
 20
6.115280478212185
 30
0.0
 10
4.888024453412333
 20
6.290126821575542
 30
0.0
 10
4.914633746588458
 20
6.376797285678344
 30
0.0
 10
4.926492923932163
 20
6.415424407317881
 30
0.0
  0
SPLINE
  5
174
330
165
100
AcDbEntity
  8
0
  6
Continuous
 62
     7
370
    25
100
AcDbSpline
210
0.0
220
0.0
230
1.0
 70
     8
 71
     3
 72
    24
 73
    20
 74
     0
 42
0.000000001
 43
0.00000001
 40
0.0
 40
0.0
 40
0.0
 40
0.0
 40
0.0277072125832178
 40
0.0857250877390235
 40
0.1437812187091004
 40
0.2022330579355778
 40
0.261400949066694
 40
0.3215398079218618
 40
0.3828121049849188
 40
0.4452663126064273
 40
0.5088307891443625
 40
0.5733315837344122
 40
0.6385329907193596
 40
0.704187284723704
 40
0.7700756873870787
 40
0.8360149738019589
 40
0.9018791115966845
 40
0.9676124809036918
 40
0.9999999999999999
 40
0.9999999999999999
 40
0.9999999999999999
 40
0.9999999999999999
 10
9.39538164830248
 20
2.14733075596813
 30
0.0
 10
9.396269919812505
 20
2.202164885606621
 30
0.0
 10
9.399018198907859
 20
2.371819648251341
 30
0.0
 10
9.36406707066358
 20
2.655402799732176
 30
0.0
 10
9.293080154364016
 20
2.994949777153437
 30
0.0
 10
9.184459411539818
 20
3.329317359367772
 30
0.0
 10
9.041013134598845
 20
3.657911444230702
 30
0.0
 10
8.86204846951225
 20
3.980108199022164
 30
0.0
 10
8.647679389649706
 20
4.295112995032672
 30
0.0
 10
8.397908199400112
 20
4.601863236824294
 30
0.0
 10
8.11316145267085
 20
4.899011892930685
 30
0.0
 10
7.794367563172179
 20
5.185012379118123
 30
0.0
 10
7.44300082288399
 20
5.45826255539941
 30
0.0
 10
7.061013435316045
 20
5.717305680725265
 30
0.0
 10
6.650537510509537
 20
5.960786331295329
 30
0.0
 10
6.21428710029568
 20
6.188021543012772
 30
0.0
 10
5.753246437445212
 20
6.397055632821235
 30
0.0
 10
5.355139923142207
 20
6.559087771160312
 30
0.0
 10
5.103836367440313
 20
6.644498163649442
 30
0.0
 10
5.020886662828891
 20
6.672690231238501
 30
0.0
  0
SPLINE
  5
175
330
165
100
AcDbEntity
  8
0
  6
Continuous
 62
     7
370
    25
100
AcDbSpline
210
0.0
220
0.0
230
1.0
 70
     8
 71
     3
 72
    24
 73
    20
 74
     0
 42
0.000000001
 43
0.00000001
 40
0.0
 40
0.0
 40
0.0
 40
0.0
 40
0.0304054122539254
 40
0.0959296006740591
 40
0.1616585851879716
 40
0.2275922161289017
 40
0.2937106936094437
 40
0.3599635340629972
 40
0.4262280069913655
 40
0.4923139031238857
 40
0.5579840258100063
 40
0.622956891162568
 40
0.6869523072716373
 40
0.7497543014362172
 40
0.811266437063908
 40
0.8715358988592108
 40
0.9307419094559513
 40
0.989162227872094
 40
1.0
 40
1.0
 40
1.0
 40
1.0
 10
-5.017516429543612
 20
6.673882903177166
 30
0.0
 10
-5.095668415539993
 20
6.647434133419372
 30
0.0
 10
-5.342239280815789
 20
6.563987808140299
 30
0.0
 10
-5.736178077843767
 20
6.404271977798004
 30
0.0
 10
-6.198410810034882
 20
6.195761053303008
 30
0.0
 10
-6.636785066980696
 20
5.968447727526608
 30
0.0
 10
-7.050798623084496
 20
5.723869698446037
 30
0.0
 10
-7.438020894753261
 20
5.46205719365742
 30
0.0
 10
-7.796312701790009
 20
5.183697619787742
 30
0.0
 10
-8.12327729015826
 20
4.889686773012363
 30
0.0
 10
-8.416551239547363
 20
4.581352257705427
 30
0.0
 10
-8.673947715375181
 20
4.260455292256499
 30
0.0
 10
-8.893631215937319
 20
3.929182739934804
 30
0.0
 10
-9.074469787961567
 20
3.589986841997641
 30
0.0
 10
-9.215588923958396
 20
3.245374109978667
 30
0.0
 10
-9.318259221911664
 20
2.897660687388549
 30
0.0
 10
-9.378649003655312
 20
2.548974985677257
 30
0.0
 10
-9.404055988496147
 20
2.2942079245044
 30
0.0
 10
-9.398120178401678
 20
2.156932900683021
 30
0.0
 10
-9.397191320030146
 20
2.135451577485369
 30
0.0
  0
LWPOLYLINE
  5
176
330
165
100
AcDbEntity
  8
0
  6
Continuous
 62
     7
370
    25
100
AcDbPolyline
 90
       43
 70
   128
 43
0.0
 10
-7.9338216118
 20
11.1140274998
 10
-7.18652719
 20
10.9228537466
 10
-6.4219197948
 20
10.7507956864
 10
-5.6418414323
 20
10.598267822
 10
-4.8481713796
 20
10.4656376065
 10
-4.0428216574
 20
10.3532245577
 10
-3.2277324237
 20
10.2612994884
 10
-2.4048672999
 20
10.1900838542
 10
-1.5762086401
 20
10.1397492198
 10
-0.7437527557
 20
10.1104168457
 10
0.0904948943
 20
10.1021573962
 10
0.9245245342
 20
10.1149907691
 10
1.7563269135
 20
10.1488860475
 10
2.5838981474
 20
10.2037615749
 10
3.4052445443
 20
10.2794851512
 10
4.2183874089
 20
10.3758743518
 10
5.0213678087
 20
10.4926969665
 10
5.8122512936
 20
10.6296715596
 10
6.5891325561
 20
10.7864681472
 10
7.3501400211
 20
10.9627089925
 10
8.093440355
 20
11.1579695161
 10
8.8172428822
 20
11.371779318
 10
9.519803899
 20
11.6036233119
 10
10.1994308744
 20
11.8529429652
 10
10.8544865274
 20
12.1191376451
 10
11.4833927717
 20
12.4015660652
 10
12.0846345169
 20
12.6995478307
 10
12.6567633191
 20
13.0123650775
 10
13.1984008698
 20
13.3392642014
 10
13.7082423168
 20
13.6794576739
 10
14.1850594074
 20
14.0321259389
 10
14.6277034474
 20
14.3964193878
 10
15.0351080685
 20
14.7714604058
 10
15.4062917974
 20
15.1563454862
 10
15.7403604199
 20
15.5501474071
 10
16.0365091355
 20
15.9519174652
 10
16.2940244959
 20
16.3606877613
 10
16.5122861242
 20
16.7754735318
 10
16.6907682088
 20
17.1952755216
 10
16.8290407709
 20
17.6190823909
 10
16.9267706998
 20
18.0458731518
 10
16.9837225554
 20
18.474619628
 10
16.9999997245
 20
18.8592569832
  0
LWPOLYLINE
  5
177
330
165
100
AcDbEntity
  8
0
  6
Continuous
 62
     7
370
    25
100
AcDbPolyline
 90
       24
 70
   128
 43
0.0
 10
-16.9999976077
 20
18.8623256355
 10
-16.9997591358
 20
18.8110722993
 10
-16.9748418074
 20
18.3815152792
 10
-16.9090305983
 20
17.953105383
 10
-16.8024840534
 20
17.5268746879
 10
-16.6554588527
 20
17.1038500208
 10
-16.4683091928
 20
16.6850504852
 10
-16.2414859336
 20
16.2714850058
 10
-15.9755355121
 20
15.8641498983
 10
-15.6710986264
 20
15.4640264684
 10
-15.3289086914
 20
15.0720786486
 10
-14.9497900728
 20
14.6892506756
 10
-14.5346561004
 20
14.3164648154
 10
-14.0845068683
 20
13.9546191418
 10
-13.6004268256
 20
13.6045853727
 10
-13.0835821634
 20
13.2672067702
 10
-12.5352180058
 20
12.9432961089
 10
-11.95665541
 20
12.6336337179
 10
-11.3492881841
 20
12.338965601
 10
-10.7145795288
 20
12.0600016396
 10
-10.054058513
 20
11.7974138822
 10
-9.3693163896
 20
11.5518349258
 10
-8.6620027624
 20
11.3238563916
 10
-7.9338216118
 20
11.1140274998
  0
LWPOLYLINE
  5
178
330
165
100
AcDbEntity
  8
0
  6
Continuous
 62
     7
370
    25
100
AcDbPolyline
 90
      125
 70
   128
 43
0.0
 10
-7.4671267531
 20
12.4267032897
 10
-6.7408220143
 20
12.2412682327
 10
-5.997213682
 20
12.0750177476
 10
-5.2382105882
 20
11.9283785969
 10
-4.465761083
 20
11.8017272013
 10
-3.6818480331
 20
11.6953886731
 10
-2.8884837321
 20
11.6096359818
 10
-2.0877047349
 20
11.5446892532
 10
-1.2815666294
 20
11.5007152048
 10
-0.4721387609
 20
11.4778267172
 10
0.3385010811
 20
11.4760825449
 10
1.1482719957
 20
11.4954871651
 10
1.9550953125
 20
11.5359907665
 10
2.7568999277
 20
11.5974893769
 10
3.5516276203
 20
11.6798251303
 10
4.3372383358
 20
11.7827866719
 10
5.1117154227
 20
11.906109701
 10
5.8730708093
 20
12.049477649
 10
6.6193501075
 20
12.2125224926
 10
7.3486376288
 20
12.394825698
 10
8.0590613028
 20
12.5959192954
 10
8.748797482
 20
12.8152870805
 10
9.4160756235
 20
13.0523659393
 10
10.0591828339
 20
13.3065472938
 10
10.6764682663
 20
13.577178664
 10
11.2663473578
 20
13.8635653432
 10
11.8273058971
 20
14.1649721809
 10
12.3579039119
 20
14.48062547
 10
12.8567793646
 20
14.809714933
 10
13.322651649
 20
15.151395802
 10
13.7543248777
 20
15.5047909872
 10
14.1506909517
 20
15.8689933281
 10
14.510732405
 20
16.2430679226
 10
14.8335250163
 20
16.6260545265
 10
15.1182401817
 20
17.0169700188
 10
15.3641470413
 20
17.4148109249
 10
15.5706143559
 20
17.8185559931
 10
15.7371121267
 20
18.2271688153
 10
15.8632129563
 20
18.6396004885
 10
15.9485931459
 20
19.0547923064
 10
15.9930335255
 20
19.4716784777
 10
15.9964200175
 20
19.8891888613
 10
15.9587439287
 20
20.3062517143
 10
15.8801019731
 20
20.7217964422
 10
15.7606960236
 20
21.1347563476
 10
15.6008325933
 20
21.5440713685
 10
15.4009220496
 20
21.948690799
 10
15.1614775598
 20
22.3475759869
 10
14.8831137746
 20
22.7397029996
 10
14.5665452497
 20
23.1240652527
 10
14.2125846122
 20
23.4996760937
 10
13.8221404738
 20
23.8655713351
 10
13.396215099
 20
24.220811729
 10
12.9359018322
 20
24.5644853785
 10
12.4423822909
 20
24.8957100781
 10
11.9169233327
 20
25.2136355789
 10
11.3608738032
 20
25.5174457706
 10
10.7756610736
 20
25.8063607768
 10
10.1627873766
 20
26.0796389569
 10
9.5238259502
 20
26.3365788096
 10
8.8604169991
 20
26.5765207741
 10
8.1742634847
 20
26.7988489228
 10
7.4671267531
 20
27.0029925426
 10
6.7408220143
 20
27.1884275996
 10
5.997213682
 20
27.3546780847
 10
5.2382105882
 20
27.5013172354
 10
4.465761083
 20
27.627968631
 10
3.6818480331
 20
27.7343071592
 10
2.8884837321
 20
27.8200598505
 10
2.0877047349
 20
27.8850065791
 10
1.2815666294
 20
27.9289806275
 10
0.4721387609
 20
27.9518691151
 10
-0.3385010811
 20
27.9536132874
 10
-1.1482719957
 20
27.9342086672
 10
-1.9550953125
 20
27.8937050658
 10
-2.7568999277
 20
27.8322064554
 10
-3.5516276203
 20
27.749870702
 10
-4.3372383358
 20
27.6469091604
 10
-5.1117154227
 20
27.5235861313
 10
-5.8730708093
 20
27.3802181833
 10
-6.6193501075
 20
27.2171733397
 10
-7.3486376288
 20
27.0348701343
 10
-8.0590613028
 20
26.8337765369
 10
-8.748797482
 20
26.6144087518
 10
-9.4160756235
 20
26.377329893
 10
-10.0591828339
 20
26.1231485385
 10
-10.6764682663
 20
25.8525171683
 10
-11.2663473578
 20
25.5661304891
 10
-11.8273058971
 20
25.2647236514
 10
-12.3579039119
 20
24.9490703623
 10
-12.8567793646
 20
24.6199808993
 10
-13.322651649
 20
24.2783000303
 10
-13.7543248777
 20
23.9249048451
 10
-14.1506909517
 20
23.5607025042
 10
-14.510732405
 20
23.1866279097
 10
-14.8335250163
 20
22.8036413058
 10
-15.1182401817
 20
22.4127258135
 10
-15.3641470413
 20
22.0148849074
 10
-15.5706143559
 20
21.6111398392
 10
-15.7371121267
 20
21.202527017
 10
-15.8632129563
 20
20.7900953438
 10
-15.9485931459
 20
20.3749035258
 10
-15.9930335255
 20
19.9580173546
 10
-15.9964200175
 20
19.540506971
 10
-15.9587439287
 20
19.123444118
 10
-15.8801019731
 20
18.7078993901
 10
-15.7606960236
 20
18.2949394847
 10
-15.6008325933
 20
17.8856244638
 10
-15.4009220496
 20
17.4810050333
 10
-15.1614775598
 20
17.0821198454
 10
-14.8831137746
 20
16.6899928327
 10
-14.5665452497
 20
16.3056305796
 10
-14.2125846122
 20
15.9300197386
 10
-13.8221404738
 20
15.5641244972
 10
-13.396215099
 20
15.2088841033
 10
-12.9359018322
 20
14.8652104538
 10
-12.4423822909
 20
14.5339857542
 10
-11.9169233327
 20
14.2160602534
 10
-11.3608738032
 20
13.9122500617
 10
-10.7756610736
 20
13.6233350555
 10
-10.1627873766
 20
13.3500568754
 10
-9.5238259502
 20
13.0931170227
 10
-8.8604169991
 20
12.8531750582
 10
-8.1742634847
 20
12.6308469095
 10
-7.4671267531
 20
12.4267032897
  0
LWPOLYLINE
  5
179
330
165
100
AcDbEntity
  8
0
  6
Continuous
 62
     7
370
    25
100
AcDbPolyline
 90
       37
 70
   128
 43
0.0
 10
-5.6003446672
 20
-5.4661080817
 10
-4.9678391925
 20
-5.6259646961
 10
-4.3182085469
 20
-5.7664274447
 10
-3.653692142
 20
-5.8870121234
 10
-2.9765807033
 20
-5.9873030517
 10
-2.2892083743
 20
-6.066954506
 10
-1.5939446698
 20
-6.1256919114
 10
-0.8931863078
 20
-6.1633127877
 10
-0.1893489476
 20
-6.179687448
 10
0.5151411377
 20
-6.1747594455
 10
1.2178554247
 20
-6.148545768
 10
1.9163715118
 20
-6.1011367795
 10
2.6082814693
 20
-6.0326959086
 10
3.2912001403
 20
-5.9434590852
 10
3.9627733625
 20
-5.8337339271
 10
4.6206860841
 20
-5.7038986795
 10
5.2626703434
 20
-5.5544009116
 10
5.8865130879
 20
-5.3857559731
 10
6.4900638023
 20
-5.1985452181
 10
7.0712419223
 20
-4.9934140007
 10
7.6280440065
 20
-4.7710694509
 10
8.1585506428
 20
-4.5322780362
 10
8.6609330648
 20
-4.2778629203
 10
9.1334594564
 20
-4.0087011246
 10
9.5745009212
 20
-3.7257205057
 10
9.9825370977
 20
-3.4298965565
 10
10.356161401
 20
-3.1222490432
 10
10.6940858704
 20
-2.8038384907
 10
10.9951456105
 20
-2.4757625261
 10
11.2583028059
 20
-2.1391520951
 10
11.4826502992
 20
-1.7951675637
 10
11.6674147182
 20
-1.4449947179
 10
11.8119591416
 20
-1.0898406759
 10
11.9157852948
 20
-0.7309297273
 10
11.9785352677
 20
-0.3694991126
 10
11.999992748
 20
-0.0067947578
 10
12.0
 20
0.0
  0
LWPOLYLINE
  5
17A
330
165
100
AcDbEntity
  8
0
  6
Continuous
 62
     7
370
    25
100
AcDbPolyline
 90
       20
 70
   128
 43
0.0
 10
-12.0
 20
0.0
 10
-11.9952081177
 20
-0.1746444017
 10
-11.954632734
 20
-0.5369148283
 10
-11.8728472548
 20
-0.8973343982
 10
-11.7501336115
 20
-1.2546606705
 10
-11.5869148234
 20
-1.6076618676
 10
-11.3837535396
 20
-1.9551211212
 10
-11.1413500991
 20
-2.2958406673
 10
-10.8605401167
 20
-2.628645975
 10
-10.5422916027
 20
-2.9523897954
 10
-10.1877016255
 20
-3.2659561167
 10
-9.7979925303
 20
-3.5682640105
 10
-9.3745077251
 20
-3.8582713592
 10
-8.9187070498
 20
-4.1349784472
 10
-8.4321617436
 20
-4.3974314078
 10
-7.9165490291
 20
-4.6447255115
 10
-7.3736463301
 20
-4.876008284
 10
-6.8053251446
 20
-5.0904824459
 10
-6.2135445936
 20
-5.2874086603
 10
-5.6003446672
 20
-5.4661080817
  0
LWPOLYLINE
  5
17B
330
165
100
AcDbEntity
  8
0
  6
Continuous
 62
     7
370
    25
100
AcDbPolyline
 90
       33
 70
   128
 43
0.0
 10
-4.3869366559
 20
-2.1388664122
 10
-3.8278990988
 20
-2.2788325056
 10
-3.2521231129
 20
-2.399463408
 10
-2.6621264201
 20
-2.5002316312
 10
-2.0604889257
 20
-2.5806965413
 10
-1.4498414376
 20
-2.6405062858
 10
-0.8328541618
 20
-2.6793993319
 10
-0.2122250266
 20
-2.6972056101
 10
0.4093321147
 20
-2.6938472583
 10
1.0290993507
 20
-2.6693389615
 10
1.6443665971
 20
-2.6237878883
 10
2.2524434468
 20
-2.557393222
 10
2.8506709344
 20
-2.4704452895
 10
3.4364331633
 20
-2.3633242922
 10
4.0071687443
 20
-2.2364986427
 10
4.5603819961
 20
-2.0905229174
 10
5.0936538576
 20
-1.9260354311
 10
5.6046524669
 20
-1.7437554455
 10
6.0911433569
 20
-1.5444800249
 10
6.5509992269
 20
-1.3290805497
 10
6.9822092441
 20
-1.0984989073
 10
7.3828878368
 20
-0.8537433723
 10
7.7512829395
 20
-0.5958841985
 10
8.085783654
 20
-0.3260489384
 10
8.384927294
 20
-0.0454175131
 10
8.6474057804
 20
0.2447829478
 10
8.8720713615
 20
0.5432834714
 10
9.057941632
 20
0.848778791
 10
9.2042038284
 20
1.159933053
 10
9.3102183833
 20
1.4753856593
 10
9.3755217221
 20
1.7937572157
 10
9.3998282899
 20
2.1136555645
 10
9.3999976494
 20
2.1463420803
  0
LWPOLYLINE
  5
17C
330
165
100
AcDbEntity
  8
0
  6
Continuous
 62
     7
370
    25
100
AcDbPolyline
 90
       18
 70
   128
 43
0.0
 10
-9.3999932852
 20
2.1371314996
 10
-9.3965675494
 20
2.0120962595
 10
-9.3592358436
 20
1.6925309501
 10
-9.2809785808
 20
1.3749350697
 10
-9.1621379601
 20
1.0606973844
 10
-9.0032336412
 20
0.7511919757
 10
-8.8049604724
 20
0.4477722318
 10
-8.5681854518
 20
0.1517649301
 10
-8.2939439363
 20
-0.1355355647
 10
-7.9834351142
 20
-0.4128729607
 10
-7.6380167617
 20
-0.679034532
 10
-7.2591993053
 20
-0.9328564218
 10
-6.8486392173
 20
-1.1732287315
 10
-6.4081317725
 20
-1.3991003743
 10
-5.939603198
 20
-1.6094836708
 10
-5.44510225
 20
-1.8034586684
 10
-4.9267912553
 20
-1.9801771639
 10
-4.3869366559
 20
-2.1388664122
  0
LWPOLYLINE
  5
17D
330
165
100
AcDbEntity
  8
0
  6
Continuous
 62
     8
370
    25
100
AcDbPolyline
 90
       22
 70
   128
 43
0.0
 10
-2.3334769447
 20
4.5797933716
 10
-1.9216867816
 20
4.4799414016
 10
-1.4939729167
 20
4.399789292
 10
-1.0538795217
 20
4.3400012082
 10
-0.6050533491
 20
4.3010725733
 10
-0.1512135139
 20
4.2833259622
 10
0.3038793241
 20
4.2869084288
 10
0.7564541224
 20
4.3117902877
 10
1.2027607035
 20
4.35776536
 10
1.6391008307
 20
4.4244526817
 10
2.0618588522
 20
4.5112996608
 10
2.4675316618
 20
4.6175866558
 10
2.852757727
 20
4.7424329391
 10
3.2143449433
 20
4.8848039952
 10
3.549297085
 20
5.0435200927
 10
3.8548386333
 20
5.2172660599
 10
4.1284377746
 20
5.4046021831
 10
4.3678273803
 20
5.6039761362
 10
4.5710237928
 20
5.8137358438
 10
4.7363432625
 20
6.0321431708
 10
4.8624159003
 20
6.2573883255
 10
4.9267780312
 20
6.418237642
  0
LWPOLYLINE
  5
17F
330
165
100
AcDbEntity
  8
0
  6
Continuous
 62
     8
370
    25
100
AcDbPolyline
 90
       64
 70
   128
 43
0.0
 10
-8.7233604236
 20
4.2071213941
 10
-8.7652593929
 20
4.1594898205
 10
-9.0025706312
 20
3.8599135313
 10
-9.2013314801
 20
3.5529848047
 10
-9.3606908149
 20
3.2400179566
 10
-9.4799662345
 20
2.9223531592
 10
-9.5586469834
 20
2.6013507018
 10
-9.5963961384
 20
2.2783851663
 10
-9.5930520519
 20
1.9548395407
 10
-9.5486290437
 20
1.632099297
 10
-9.4633173401
 20
1.3115464585
 10
-9.3374822587
 20
0.9945536816
 10
-9.1716626448
 20
0.6824783781
 10
-8.9665685634
 20
0.3766569024
 10
-8.7230782589
 20
0.0783988289
 10
-8.442234394
 20
-0.2110186555
 10
-8.1252395854
 20
-0.4903562206
 10
-7.7734512535
 20
-0.7584177002
 10
-7.3883758099
 20
-1.0140552138
 10
-6.9716622068
 20
-1.2561740823
 10
-6.5250948759
 20
-1.4837375157
 10
-6.0505860869
 20
-1.6957710523
 10
-5.5501677594
 20
-1.8913667319
 10
-5.0259827614
 20
-2.0696869839
 10
-4.4802757337
 20
-2.2299682136
 10
-3.9153834775
 20
-2.371524072
 10
-3.3337249481
 20
-2.4937483954
 10
-2.7377908967
 20
-2.5961178003
 10
-2.1301332044
 20
-2.6781939254
 10
-1.5133539546
 20
-2.7396253079
 10
-0.8900942909
 20
-2.7801488893
 10
-0.2630231068
 20
-2.7995911414
 10
0.3651743827
 20
-2.7978688096
 10
0.9918081394
 20
-2.774989269
 10
1.6141948213
 20
-2.7310504933
 10
2.2296692732
 20
-2.6662406353
 10
2.835595939
 20
-2.5808372206
 10
3.4293801477
 20
-2.4752059597
 10
4.008479224
 20
-2.349799182
 10
4.570413377
 20
-2.2051538985
 10
5.1127763182
 20
-2.0418895025
 10
5.6332455662
 20
-1.8607051173
 10
6.129592392
 20
-1.6623766021
 10
6.599691362
 20
-1.4477532302
 10
7.0415294405
 20
-1.2177540517
 10
7.4532146088
 20
-0.9733639585
 10
7.832983968
 20
-0.7156294665
 10
8.1792112873
 20
-0.4456542342
 10
8.4904139681
 20
-0.1645943372
 10
8.7652593929
 20
0.126346683
 10
9.0025706312
 20
0.4259229722
 10
9.2013314801
 20
0.7328516988
 10
9.3606908149
 20
1.0458185469
 10
9.4799662345
 20
1.3634833443
 10
9.5586469834
 20
1.6844858017
 10
9.5963961384
 20
2.0074513372
 10
9.5930520519
 20
2.3309969628
 10
9.5486290437
 20
2.6537372065
 10
9.4633173401
 20
2.9742900451
 10
9.3374822587
 20
3.2912828219
 10
9.1716626448
 20
3.6033581254
 10
8.9665685634
 20
3.9091796011
 10
8.7230782589
 20
4.2074376746
 10
8.6958548151
 20
4.2376806791
  0
LWPOLYLINE
  5
180
330
165
100
AcDbEntity
  8
0
  6
Continuous
 62
     8
370
    25
100
AcDbPolyline
 90
       55
 70
   128
 43
0.0
 10
11.9999999999
 20
0.0856985649
 10
11.994433534
 20
-0.1025113302
 10
11.9523116532
 20
-0.4647349311
 10
11.868987678
 20
-0.8250610111
 10
11.7447488435
 20
-1.1822474515
 10
11.5800234267
 20
-1.5350629567
 10
11.3753792702
 20
-1.8822912986
 10
11.1315218248
 20
-2.2227355091
 10
10.8492917176
 20
-2.5552220065
 10
10.5296618544
 20
-2.8786046409
 10
10.1737340654
 20
-3.1917686456
 10
9.7827353075
 20
-3.4936344791
 10
9.3580134343
 20
-3.7831615476
 10
8.9010325502
 20
-4.0593517911
 10
8.413367963
 20
-4.3212531247
 10
7.8967007535
 20
-4.5679627203
 10
7.3528119806
 20
-4.7986301188
 10
6.7835765416
 20
-5.0124601618
 10
6.1909567089
 20
-5.208715733
 10
5.576995366
 20
-5.3867202986
 10
4.9438089646
 20
-5.5458602401
 10
4.2935802296
 20
-5.6855869692
 10
3.6285506341
 20
-5.8054188188
 10
2.9510126729
 20
-5.9049427038
 10
2.2633019596
 20
-5.9838155446
 10
1.5677891756
 20
-6.0417654504
 10
0.8668718976
 20
-6.0785926556
 10
0.1629663325
 20
-6.0941702095
 10
-0.5415010113
 20
-6.0884444128
 10
-1.2441016889
 20
-6.0614350036
 10
-1.9424136902
 20
-6.0132350889
 10
-2.6340297892
 20
-5.9440108238
 10
-3.3165658419
 20
-5.8540008388
 10
-3.987669005
 20
-5.7435154167
 10
-4.6450258469
 20
-5.6129354239
 10
-5.2863703225
 20
-5.4627109966
 10
-5.9094915845
 20
-5.2933599895
 10
-6.5122416047
 20
-5.1054661906
 10
-7.0925425791
 20
-4.8996773087
 10
-7.6483940898
 20
-4.6767027408
 10
-8.1778800017
 20
-4.4373111264
 10
-8.6791750671
 20
-4.182327698
 10
-9.1505512181
 20
-3.9126314363
 10
-9.5903835233
 20
-3.6291520401
 10
-9.9971557898
 20
-3.3328667217
 10
-10.3694657893
 20
-3.024796838
 10
-10.706030092
 20
-2.7060043696
 10
-11.0056884911
 20
-2.3775882602
 10
-11.267408002
 20
-2.0406806282
 10
-11.4902864234
 20
-1.6964428641
 10
-11.6735554472
 20
-1.3460616266
 10
-11.816583307
 20
-0.9907447525
 10
-11.9188769562
 20
-0.6317170927
 10
-11.9800837674
 20
-0.2702162898
 10
-11.9999970624
 20
0.0813921635
  0
LWPOLYLINE
  5
181
330
165
100
AcDbEntity
  8
0
  6
Continuous
 62
     8
370
    25
100
AcDbPolyline
 90
       44
 70
   128
 43
0.0
 10
-3.920241267
 20
-0.8261901047
 10
-3.3924630847
 20
-0.9577129382
 10
-2.8481571632
 20
-1.0699537752
 10
-2.2899753063
 20
-1.1623657898
 10
-1.7206369199
 20
-1.2344987598
 10
-1.1429157633
 20
-1.2860012608
 10
-0.5596264361
 20
-1.3166223776
 10
0.0263893349
 20
-1.3262129273
 10
0.6122765397
 20
-1.3147261856
 10
1.1951807947
 20
-1.282218115
 10
1.772262249
 20
-1.2288470913
 10
2.3407094199
 20
-1.1548731328
 10
2.8977528897
 20
-1.0606566333
 10
3.4406787987
 20
-0.946656606
 10
3.9668420664
 20
-0.8134284477
 10
4.4736792784
 20
-0.6616212325
 10
4.9587211746
 20
-0.4919745499
 10
5.4196046797
 20
-0.3053149016
 10
5.8540844156
 20
-0.1025516744
 10
6.2600436406
 20
0.1153272894
 10
6.6355045623
 20
0.3472605055
 10
6.9786379727
 20
0.5921180186
 10
7.2877721605
 20
0.8487069075
 10
7.5614010548
 20
1.1157770968
 10
7.7981915633
 20
1.3920274476
 10
7.9969900663
 20
1.6761120958
 10
8.1568280376
 20
1.9666470095
 10
8.2769267627
 20
2.262216732
 10
8.3567011325
 20
2.5613812772
 10
8.3957624944
 20
2.8626831456
 10
8.3939205454
 20
3.1646544246
 10
8.3511842592
 20
3.4658239407
 10
8.2677618428
 20
3.7647244261
 10
8.1440597218
 20
4.0598996678
 10
7.9806805604
 20
4.3499116017
 10
7.7784203256
 20
4.6333473188
 10
7.5382644088
 20
4.9088259486
 10
7.2613828256
 20
5.1750053872
 10
6.9491245152
 20
5.4305888349
 10
6.6030107686
 20
5.674331115
 10
6.2247278173
 20
5.9050447395
 10
5.8161186178
 20
6.1216056948
 10
5.379173873
 20
6.3229589178
 10
4.9619133667
 20
6.4909426421
  0
LWPOLYLINE
  5
182
330
165
100
AcDbEntity
  8
0
  6
Continuous
 62
     8
370
    25
100
AcDbPolyline
 90
       30
 70
   128
 43
0.0
 10
-4.964124486
 20
6.4901086602
 10
-5.4196046797
 20
6.3054860065
 10
-5.8540844156
 20
6.1027227793
 10
-6.2600436406
 20
5.8848438155
 10
-6.6355045623
 20
5.6529105994
 10
-6.9786379727
 20
5.4080530863
 10
-7.2877721605
 20
5.1514641975
 10
-7.5614010548
 20
4.8843940081
 10
-7.7981915633
 20
4.6081436573
 10
-7.9969900663
 20
4.3240590092
 10
-8.1568280376
 20
4.0335240954
 10
-8.2769267627
 20
3.7379543729
 10
-8.3567011325
 20
3.4387898277
 10
-8.3957624944
 20
3.1374879593
 10
-8.3939205454
 20
2.8355166803
 10
-8.3511842592
 20
2.5343471642
 10
-8.2677618428
 20
2.2354466788
 10
-8.1440597218
 20
1.9402714371
 10
-7.9806805604
 20
1.6502595032
 10
-7.7784203256
 20
1.3668237862
 10
-7.5382644088
 20
1.0913451563
 10
-7.2613828256
 20
0.8251657177
 10
-6.9491245152
 20
0.56958227
 10
-6.6030107686
 20
0.3258399899
 10
-6.2247278173
 20
0.0951263654
 10
-5.8161186178
 20
-0.1214345899
 10
-5.379173873
 20
-0.3227878129
 10
-4.9160223338
 20
-0.5079523308
 10
-4.428920428
 20
-0.6760260408
 10
-3.920241267
 20
-0.8261901047
  0
LINE
  5
183
330
165
100
AcDbEntity
  8
0
  6
Continuous
 62
     7
370
    25
100
AcDbLine
 10
-12.0
 20
0.0857167301
 30
0.0
 11
-12.0
 21
0.0
 31
0.0
  0
LINE
  5
184
330
165
100
AcDbEntity
  8
0
  6
Continuous
 62
     7
370
    25
100
AcDbLine
 10
12.0
 20
0.0
 30
0.0
 11
12.0
 21
0.0857167301
 31
0.0
  0
ARC
  5
185
330
165
100
AcDbEntity
  8
0
  6
Continuous
 62
     8
370
    25
100
AcDbCircle
 10
-1.7787538096
 20
8.1109825678
 30
0.0
 40
3.574495054728417
100
AcDbArc
 50
208.2883334241
 51
261.072228868
  0
VIEWPORT
  5
1B6
330
165
100
AcDbEntity
  8
0
100
AcDbViewport
 10
0.0
 20
0.0
 30
0.0
 40
205.6
 41
156.0
 68
     1
 69
     1
 12
0.0
 22
13.0
 13
0.0
 23
0.0
 14
10.0
 24
10.0
 15
10.0
 25
10.0
 16
0.0
 26
0.0
 36
1.0
 17
0.0
 27
0.0
 37
0.0
 42
50.0
 43
0.0
 44
0.0
 45
29.4093385214
 50
0.0
 51
0.0
 72
   100
 90
   557152
  1

281
     0
 71
     1
 74
     0
110
0.0
120
0.0
130
0.0
111
1.0
121
0.0
131
0.0
112
0.0
122
1.0
132
0.0
 79
     0
146
0.0
  0
ENDBLK
  5
168
330
165
100
AcDbEntity
  8
0
100
AcDbBlockEnd
  0
BLOCK
  5
188
330
186
100
AcDbEntity
  8
0
100
AcDbBlockBegin
  2
*Paper_Space6
 70
     0
 10
0.0
 20
0.0
 30
0.0
  3
*Paper_Space6
  1

  0
SPLINE
  5
18A
330
186
100
AcDbEntity
  8
0
  6
Continuous
 62
     7
370
    25
100
AcDbSpline
210
0.0
220
0.0
230
1.0
 70
     8
 71
     3
 72
    65
 73
    61
 74
     0
 42
0.000000001
 43
0.00000001
 40
0.0
 40
0.0
 40
0.0
 40
0.0
 40
0.0094810413292174
 40
0.0275097748421114
 40
0.0455163783049487
 40
0.0635023945709442
 40
0.0814719734674781
 40
0.0994289588912174
 40
0.1173769605987247
 40
0.1353194204520445
 40
0.1532596738398105
 40
0.1712007337657396
 40
0.1891450723491905
 40
0.2070960269243629
 40
0.2250570392041639
 40
0.243031716172366
 40
0.261023895745401
 40
0.2790377188884697
 40
0.2970777100925456
 40
0.3151488681416145
 40
0.3332567689601117
 40
0.3514076818365861
 40
0.3696086991130932
 40
0.3878678768486122
 40
0.4061943787843415
 40
0.4245986058996182
 40
0.4430922747911578
 40
0.4616883724523244
 40
0.4804008492360142
 40
0.4992437928309528
 40
0.5182296190005335
 40
0.5373654816609053
 40
0.5566466611738057
 40
0.576045405187103
 40
0.5954812824783454
 40
0.61478678087439
 40
0.6337584208001241
 40
0.6521761256429648
 40
0.668034995443856
 40
0.6832568986550025
 40
0.6995187020443823
 40
0.7151276975948289
 40
0.7301701805807623
 40
0.7447770886922785
 40
0.7590772279202261
 40
0.773193096073012
 40
0.7872409232634683
 40
0.8012993156803846
 40
0.8154834801098407
 40
0.8299092936156582
 40
0.8446937663461674
 40
0.8599526454724965
 40
0.8757934409398934
 40
0.8923020137275324
 40
0.9095221754361256
 40
0.9274326596575008
 40
0.9459342666180544
 40
0.9648634130037508
 40
0.9840336525152746
 40
1.0
 40
1.0
 40
1.0
 40
1.0
 10
-6.259633307626518
 20
11.56568683889236
 30
0.0
 10
-6.123528452170016
 20
11.54892119363021
 30
0.0
 10
-5.728612556487957
 20
11.50027473062799
 30
0.0
 10
-5.066087702826978
 20
11.42910738824287
 30
0.0
 10
-4.270252058308579
 20
11.35638559304286
 30
0.0
 10
-3.466529410551018
 20
11.29635751220923
 30
0.0
 10
-2.656622761340939
 20
11.24887203073822
 30
0.0
 10
-1.841930850863608
 20
11.21402779971154
 30
0.0
 10
-1.023946493448755
 20
11.19184231338627
 30
0.0
 10
-0.2041549767538885
 20
11.18233969600671
 30
0.0
 10
0.6159413553829636
 20
11.18552597167895
 30
0.0
 10
1.434826993096028
 20
11.20139451087509
 30
0.0
 10
2.250989194498356
 20
11.22992367981493
 30
0.0
 10
3.062928053308177
 20
11.27107799489103
 30
0.0
 10
3.86916967213033
 20
11.32480989492666
 30
0.0
 10
4.668259131520457
 20
11.39106080493857
 30
0.0
 10
5.458765928787183
 20
11.46976292324326
 30
0.0
 10
6.239289508520865
 20
11.56084162137339
 30
0.0
 10
7.008464875155191
 20
11.66421854943004
 30
0.0
 10
7.764968290205806
 20
11.77981559344369
 30
0.0
 10
8.50752302984172
 20
11.90755987090627
 30
0.0
 10
9.234905142262804
 20
12.04739000644415
 30
0.0
 10
9.945949077728638
 20
12.19926399438173
 30
0.0
 10
10.63955294924118
 20
12.36316902827232
 30
0.0
 10
11.31468298345268
 20
12.5391337489558
 30
0.0
 10
11.97037638032627
 20
12.72724340611103
 30
0.0
 10
12.60574121639691
 20
12.9276583813495
 30
0.0
 10
13.21995103601746
 20
13.14063624653292
 30
0.0
 10
13.81223012393442
 20
13.36655674057854
 30
0.0
 10
14.38182280648731
 20
13.60594716723278
 30
0.0
 10
14.92793623124386
 20
13.85950168445882
 30
0.0
 10
15.44964146765181
 20
14.12808014708173
 30
0.0
 10
15.94571580116829
 20
14.41265903219342
 30
0.0
 10
16.41431350531308
 20
14.71412206736569
 30
0.0
 10
16.85253404403474
 20
15.03279657432335
 30
0.0
 10
17.25661606868188
 20
15.36811585499313
 30
0.0
 10
17.62242510659395
 20
15.7183611672593
 30
0.0
 10
17.93564124655009
 20
16.06885226881226
 30
0.0
 10
18.19853456058418
 20
16.41490561327811
 30
0.0
 10
18.42292655185797
 20
16.764499368763
 30
0.0
 10
18.61575721741683
 20
17.1313885307612
 30
0.0
 10
18.77323568508953
 20
17.51542959123632
 30
0.0
 10
18.88928612591554
 20
17.90113189935546
 30
0.0
 10
18.96514675276229
 20
18.28686661610999
 30
0.0
 10
19.00202778520314
 20
18.67122619590875
 30
0.0
 10
19.00103192525095
 20
19.05275156418338
 30
0.0
 10
18.96321995541836
 20
19.42973646263728
 30
0.0
 10
18.88968442934534
 20
19.8007320560838
 30
0.0
 10
18.78142661302222
 20
20.16471577612081
 30
0.0
 10
18.63903448635526
 20
20.52143879880305
 30
0.0
 10
18.46257240269924
 20
20.87107152846846
 30
0.0
 10
18.25147829105603
 20
21.21410005006008
 30
0.0
 10
18.00456948631654
 20
21.55112975309476
 30
0.0
 10
17.72022256650889
 20
21.88259980698349
 30
0.0
 10
17.39682596609899
 20
22.20847526018989
 30
0.0
 10
17.03330372464187
 20
22.52795208800056
 30
0.0
 10
16.63014238000556
 20
22.83963928160384
 30
0.0
 10
16.18804768754991
 20
23.14109931526431
 30
0.0
 10
15.74095607774363
 20
23.41560942417986
 30
0.0
 10
15.42751949578823
 20
23.58281935756199
 30
0.0
 10
15.28509139420685
 20
23.6588008949709
 30
0.0
  0
SPLINE
  5
18B
330
186
100
AcDbEntity
  8
0
  6
Continuous
 62
     7
370
    25
100
AcDbSpline
210
0.0
220
0.0
230
1.0
 70
     8
 71
     3
 72
    50
 73
    46
 74
     0
 42
0.000000001
 43
0.00000001
 40
0.0
 40
0.0
 40
0.0
 40
0.0
 40
0.009474009106817
 40
0.0362505724764323
 40
0.0631868753658359
 40
0.0901639826536533
 40
0.1169464028451268
 40
0.1432484075685486
 40
0.1687658461510139
 40
0.1907247739732894
 40
0.2118045731819691
 40
0.234323389581732
 40
0.2559440319298099
 40
0.2767881315634056
 40
0.297037565760655
 40
0.3168707085163543
 40
0.3364571369915427
 40
0.3559550439063539
 40
0.3754763910110516
 40
0.395181112036022
 40
0.4152301636241961
 40
0.4357860163510704
 40
0.457009045275117
 40
0.4790474227639696
 40
0.5020179537055052
 40
0.5259773061638776
 40
0.5508902462110856
 40
0.5766132687827823
 40
0.602915798250678
 40
0.6295392810915961
 40
0.6562502251669348
 40
0.682871291291921
 40
0.7093355122314414
 40
0.7356179759559521
 40
0.7617178594257235
 40
0.78764638622407
 40
0.8134198182555864
 40
0.8390557221412243
 40
0.8645711349260515
 40
0.8899817632322579
 40
0.9153017193212433
 40
0.9405435225741915
 40
0.9657182223038743
 40
0.990835567443572
 40
1.0
 40
1.0
 40
1.0
 40
1.0
 10
-15.28591547144496
 20
23.65714134171211
 30
0.0
 10
-15.348141372274
 20
23.62529402381714
 30
0.0
 10
-15.58623746258608
 20
23.5034360550824
 30
0.0
 10
-15.97095972720512
 20
23.27662196273076
 30
0.0
 10
-16.43952978855061
 20
22.97495194979193
 30
0.0
 10
-16.8755584003291
 20
22.65514337884775
 30
0.0
 10
-17.27775335210238
 20
22.31900488766977
 30
0.0
 10
-17.64132132490594
 20
21.96799435277379
 30
0.0
 10
-17.95224105681999
 20
21.61694695797622
 30
0.0
 10
-18.21284947777925
 20
21.27049997664676
 30
0.0
 10
-18.43497025265444
 20
20.92064294460094
 30
0.0
 10
-18.62550686332347
 20
20.55354966495755
 30
0.0
 10
-18.780669665825
 20
20.16939777375018
 30
0.0
 10
-18.89448038033177
 20
19.78365900302633
 30
0.0
 10
-18.96817145631303
 20
19.39796261949187
 30
0.0
 10
-19.00294581646266
 20
19.01372051452933
 30
0.0
 10
-18.99990169648746
 20
18.63240992151562
 30
0.0
 10
-18.96010336793168
 20
18.25572751590596
 30
0.0
 10
-18.884642151773
 20
17.88510235173932
 30
0.0
 10
-18.77450207568942
 20
17.52151424809804
 30
0.0
 10
-18.63024601578448
 20
17.1651878149714
 30
0.0
 10
-18.45190593254004
 20
16.81593185437147
 30
0.0
 10
-18.23888450971936
 20
16.47324768073745
 30
0.0
 10
-17.98996729574282
 20
16.13653141561153
 30
0.0
 10
-17.70352128427831
 20
15.80536016491719
 30
0.0
 10
-17.37793454400339
 20
15.47981190512334
 30
0.0
 10
-17.01225113884753
 20
15.16070222174075
 30
0.0
 10
-16.60677586076762
 20
14.84958093333495
 30
0.0
 10
-16.16330770161953
 20
14.5484148097603
 30
0.0
 10
-15.68487286326026
 20
14.25912232233047
 30
0.0
 10
-15.17510527299702
 20
13.98318175715266
 30
0.0
 10
-14.63731102051028
 20
13.72131702160783
 30
0.0
 10
-14.0740399894822
 20
13.47361575540059
 30
0.0
 10
-13.48696632600943
 20
13.23974818359388
 30
0.0
 10
-12.87737501489643
 20
13.01930949144554
 30
0.0
 10
-12.24633223377394
 20
12.81192093366596
 30
0.0
 10
-11.59480703239183
 20
12.61727370961387
 30
0.0
 10
-10.92374762974389
 20
12.43513918570516
 30
0.0
 10
-10.23412343393176
 20
12.26536496661348
 30
0.0
 10
-9.52695275699715
 20
12.10785804602292
 30
0.0
 10
-8.803294673178346
 20
11.96259139084425
 30
0.0
 10
-8.064320876001664
 20
11.82951910698714
 30
0.0
 10
-7.311059568615052
 20
11.70883547375302
 30
0.0
 10
-6.706938936792287
 20
11.62293965320537
 30
0.0
 10
-6.353986813876452
 20
11.57776360122415
 30
0.0
 10
-6.259633307626518
 20
11.56568683889236
 30
0.0
  0
SPLINE
  5
18C
330
186
100
AcDbEntity
  8
0
  6
Continuous
 62
     7
370
    25
100
AcDbSpline
210
0.0
220
0.0
230
1.0
 70
     8
 71
     3
 72
    75
 73
    71
 74
     0
 42
0.000000001
 43
0.00000001
 40
0.0
 40
0.0
 40
0.0
 40
0.0
 40
0.0085762923070163
 40
0.0212643910043538
 40
0.0340096518901911
 40
0.0469460659758039
 40
0.0601944192465956
 40
0.0738526235062608
 40
0.087981530427319
 40
0.1025895900771623
 40
0.1176253942412081
 40
0.132988347187521
 40
0.1485573759807826
 40
0.1642226200592716
 40
0.1798950944121759
 40
0.1955244573822309
 40
0.2110922744714381
 40
0.2265930820211571
 40
0.2420284295823545
 40
0.2574032167276181
 40
0.2727236345311801
 40
0.2879960863186551
 40
0.3032266651258903
 40
0.3184209334487851
 40
0.3335838606105351
 40
0.3487198381489134
 40
0.3638327304944832
 40
0.3789259386049244
 40
0.3940024653356956
 40
0.4090649773076317
 40
0.4241158611971417
 40
0.4391572740078285
 40
0.454191187688515
 40
0.4692194288299227
 40
0.4842437143128707
 40
0.4992656838111623
 40
0.5142869300357044
 40
0.5293087823956104
 40
0.5443325425967361
 40
0.5593598199479003
 40
0.5743922819942471
 40
0.5894316853046263
 40
0.6044799088286322
 40
0.6195389906968566
 40
0.6346111694193366
 40
0.6496989304295808
 40
0.6648050588152605
 40
0.6799326987643781
 40
0.6950854195419405
 40
0.7102672863413413
 40
0.7254829314827541
 40
0.7407376159923983
 40
0.7560372614915025
 40
0.771388413801992
 40
0.786798066176156
 40
0.8022732105933355
 40
0.8178198834577592
 40
0.8334413078631998
 40
0.849134506825078
 40
0.8648845618176342
 40
0.8806477400865055
 40
0.8963343725918169
 40
0.9118270263303362
 40
0.9269854976758434
 40
0.9416852802565537
 40
0.9558608262616597
 40
0.969524574421948
 40
0.9827547649240648
 40
0.9956695638407724
 40
0.9999999999999999
 40
0.9999999999999999
 40
0.9999999999999999
 40
0.9999999999999999
 10
16.99592616516162
 20
20.74885197289098
 30
0.0
 10
16.99573106636201
 20
20.82085800860142
 30
0.0
 10
16.99524733084894
 20
20.99939255980458
 30
0.0
 10
16.95233917951337
 20
21.28264498128545
 30
0.0
 10
16.87377887030003
 20
21.59566228029298
 30
0.0
 10
16.7585987426108
 20
21.90360920927921
 30
0.0
 10
16.60844224413582
 20
22.20692952385485
 30
0.0
 10
16.42202356235739
 20
22.50605561016989
 30
0.0
 10
16.19837437222681
 20
22.80114371075991
 30
0.0
 10
15.93648962477671
 20
23.09181270063047
 30
0.0
 10
15.63607993892797
 20
23.37706909674354
 30
0.0
 10
15.29783530797133
 20
23.65548087317589
 30
0.0
 10
14.92338852614456
 20
23.92553121142815
 30
0.0
 10
14.51499558219791
 20
24.1859132318358
 30
0.0
 10
14.07503122798314
 20
24.43574981555218
 30
0.0
 10
13.60560515139606
 20
24.67460948920541
 30
0.0
 10
13.10837410449217
 20
24.90239698974123
 30
0.0
 10
12.5846569323241
 20
25.11916379317877
 30
0.0
 10
12.03562978442237
 20
25.32497189804387
 30
0.0
 10
11.46240434772529
 20
25.51985471860019
 30
0.0
 10
10.86608131556417
 20
25.70380375917565
 30
0.0
 10
10.24778333836084
 20
25.87676887149419
 30
0.0
 10
9.60867364407351
 20
26.03866455347676
 30
0.0
 10
8.949965390332032
 20
26.18937824920027
 30
0.0
 10
8.27292524907628
 20
26.32877870531611
 30
0.0
 10
7.578873476650532
 20
26.45672356068757
 30
0.0
 10
6.869181870091466
 20
26.57306590258922
 30
0.0
 10
6.145270465751449
 20
26.6776597785855
 30
0.0
 10
5.408603498778761
 20
26.77036475740123
 30
0.0
 10
4.66068493555717
 20
26.85104966353843
 30
0.0
 10
3.903053765723557
 20
26.91959560909763
 30
0.0
 10
3.13727916427679
 20
26.97589843184415
 30
0.0
 10
2.364955588157779
 20
27.01987063025866
 30
0.0
 10
1.587697843821528
 20
27.05144286817772
 30
0.0
 10
0.8071361452975317
 20
27.07056510518463
 30
0.0
 10
0.0249111727760173
 20
27.0772073945146
 30
0.0
 10
-0.7573266109133971
 20
27.07136040940511
 30
0.0
 10
-1.537921284799675
 20
27.05303604115364
 30
0.0
 10
-2.315221287623399
 20
27.02226757412336
 30
0.0
 10
-3.087588595367246
 20
26.97910902079702
 30
0.0
 10
-3.853404092890186
 20
26.92363408565311
 30
0.0
 10
-4.611067700444239
 20
26.85593535654325
 30
0.0
 10
-5.359003332911627
 20
26.77612303426903
 30
0.0
 10
-6.095663869367539
 20
26.68432326357625
 30
0.0
 10
-6.819536125552094
 20
26.58067599750041
 30
0.0
 10
-7.529145814288754
 20
26.46533230446259
 30
0.0
 10
-8.223062462784535
 20
26.3384509995978
 30
0.0
 10
-8.899904228918638
 20
26.20019444746377
 30
0.0
 10
-9.55834251356013
 20
26.05072334214665
 30
0.0
 10
-10.19710619096541
 20
25.89019022421407
 30
0.0
 10
-10.81498515500521
 20
25.71873144747722
 30
0.0
 10
-11.41083267371156
 20
25.53645727687804
 30
0.0
 10
-11.98356570757975
 20
25.34343981641628
 30
0.0
 10
-12.53216179890132
 20
25.13969860765276
 30
0.0
 10
-13.055650266838
 20
24.92518415979191
 30
0.0
 10
-13.55309410641726
 20
24.69976067695574
 30
0.0
 10
-14.02355712738265
 20
24.46319139857492
 30
0.0
 10
-14.46604873869867
 20
24.21513417064851
 30
0.0
 10
-14.87943807124215
 20
23.95516216487013
 30
0.0
 10
-15.26226764956192
 20
23.68288192769683
 30
0.0
 10
-15.61254000214326
 20
23.39818693960209
 30
0.0
 10
-15.9277889021987
 20
23.10148287061526
 30
0.0
 10
-16.20531802615877
 20
22.7939179647888
 30
0.0
 10
-16.44266972863419
 20
22.47739242015165
 30
0.0
 10
-16.63824106136958
 20
22.15441875447133
 30
0.0
 10
-16.79119183591848
 20
21.82768939385236
 30
0.0
 10
-16.9030044796563
 20
21.49961459350844
 30
0.0
 10
-16.97139264137297
 20
21.17216853997918
 30
0.0
 10
-17.00187319394581
 20
20.91702065538941
 30
0.0
 10
-16.9970542024099
 20
20.77235716034381
 30
0.0
 10
-16.9958441095868
 20
20.73603083442785
 30
0.0
  0
SPLINE
  5
18E
330
186
100
AcDbEntity
  8
0
  6
Continuous
 62
     7
370
    25
100
AcDbSpline
210
0.0
220
0.0
230
1.0
 70
     8
 71
     3
 72
    17
 73
    13
 74
     0
 42
0.000000001
 43
0.00000001
 40
0.0
 40
0.0
 40
0.0
 40
0.0
 40
0.0991486076528111
 40
0.2101905846000244
 40
0.3197058289912567
 40
0.4274251965702027
 40
0.5330356958727408
 40
0.6361942279813666
 40
0.7365539790461757
 40
0.8338019477163829
 40
0.9277007597251501
 40
1.0
 40
1.0
 40
1.0
 40
1.0
 10
4.97560290457028
 20
7.372060392973801
 30
0.0
 10
5.030104721473216
 20
7.545998861021438
 30
0.0
 10
5.145646119661142
 20
7.914740582653971
 30
0.0
 10
5.356916302250346
 20
8.456172765010951
 30
0.0
 10
5.597262273865741
 20
8.99476412636261
 30
0.0
 10
5.857679045488256
 20
9.50333547059164
 30
0.0
 10
6.132828819171722
 20
9.979405634981399
 30
0.0
 10
6.418025532277134
 20
10.42013826575607
 30
0.0
 10
6.70796807603702
 20
10.82379546139982
 30
0.0
 10
6.997084846042886
 20
11.18776734951358
 30
0.0
 10
7.262409223726161
 20
11.49468874735107
 30
0.0
 10
7.428640235804647
 20
11.66691936472074
 30
0.0
 10
7.500953814202572
 20
11.74184288287753
 30
0.0
  0
SPLINE
  5
18F
330
186
100
AcDbEntity
  8
0
  6
Continuous
 62
     7
370
    25
100
AcDbSpline
210
0.0
220
0.0
230
1.0
 70
     8
 71
     3
 72
    18
 73
    14
 74
     0
 42
0.000000001
 43
0.00000001
 40
0.0
 40
0.0
 40
0.0
 40
0.0
 40
0.0085613219712727
 40
0.1039885891110845
 40
0.2035192558269841
 40
0.3070731091821739
 40
0.414374518514225
 40
0.5249714966029437
 40
0.6382873954746285
 40
0.7536931687681612
 40
0.870579000808402
 40
0.9884065157259831
 40
1.0
 40
1.0
 40
1.0
 40
1.0
 10
-7.499569815385748
 20
11.74137881310725
 30
0.0
 10
-7.491104601254785
 20
11.73300925240773
 30
0.0
 10
-7.388283369095108
 20
11.63134985780215
 30
0.0
 10
-7.182185225527589
 20
11.40304474173942
 30
0.0
 10
-6.883419633311729
 20
11.05006581360092
 30
0.0
 10
-6.578458183038533
 20
10.64909699749142
 30
0.0
 10
-6.274407685888004
 20
10.20512610456923
 30
0.0
 10
-5.977584752401174
 20
9.718926807915585
 30
0.0
 10
-5.694944116480937
 20
9.19404907258631
 30
0.0
 10
-5.43139844686281
 20
8.6352751250293
 30
0.0
 10
-5.196626629667331
 20
8.045693853498806
 30
0.0
 10
-5.044168455375591
 20
7.62164922246092
 30
0.0
 10
-4.980753916859912
 20
7.391229945611552
 30
0.0
 10
-4.975073266427464
 20
7.370589073733958
 30
0.0
  0
SPLINE
  5
190
330
186
100
AcDbEntity
  8
0
  6
Continuous
 62
     7
370
    25
100
AcDbSpline
210
0.0
220
0.0
230
1.0
 70
     8
 71
     3
 72
    23
 73
    19
 74
     0
 42
0.000000001
 43
0.00000001
 40
0.0
 40
0.0
 40
0.0
 40
0.0
 40
0.0417635406585114
 40
0.09609349652658
 40
0.1503300249853549
 40
0.2048816653304462
 40
0.2601894474266166
 40
0.3167459172658421
 40
0.3751104545754869
 40
0.4359150340613599
 40
0.4998466378457883
 40
0.5675779591801798
 40
0.6396002975966846
 40
0.7159288616407797
 40
0.7957987339431148
 40
0.8777207059181084
 40
0.9599024019846638
 40
1.0
 40
1.0
 40
1.0
 40
1.0
 10
11.99665890033883
 20
0.0959722509911616
 30
0.0
 10
11.99587138597009
 20
0.1871216829489181
 30
0.0
 10
11.99405939857477
 20
0.3968468998516473
 30
0.0
 10
11.94819979191647
 20
0.7215547807040059
 30
0.0
 10
11.86823306980126
 20
1.065207722562168
 30
0.0
 10
11.75425975554249
 20
1.397991451939907
 30
0.0
 10
11.60927600685072
 20
1.719036392995109
 30
0.0
 10
11.43384268717371
 20
2.028140692660531
 30
0.0
 10
11.22825625151913
 20
2.325768833670319
 30
0.0
 10
10.99163561187994
 20
2.612920051461437
 30
0.0
 10
10.72198118061204
 20
2.890884413348361
 30
0.0
 10
10.41628433680918
 20
3.160815127480258
 30
0.0
 10
10.07133156769458
 20
3.423147054766928
 30
0.0
 10
9.685017125865318
 20
3.676874923902926
 30
0.0
 10
9.258702799044263
 20
3.919860240812282
 30
0.0
 10
8.795496381721048
 20
4.14773446927732
 30
0.0
 10
8.390596207985402
 20
4.325893539199623
 30
0.0
 10
8.131618639025268
 20
4.421894559509259
 30
0.0
 10
8.046695197709049
 20
4.453375035008734
 30
0.0
  0
SPLINE
  5
191
330
186
100
AcDbEntity
  8
0
  6
Continuous
 62
     7
370
    25
100
AcDbSpline
210
0.0
220
0.0
230
1.0
 70
     8
 71
     3
 72
    23
 73
    19
 74
     0
 42
0.000000001
 43
0.00000001
 40
0.0
 40
0.0
 40
0.0
 40
0.0
 40
0.0073973581392255
 40
0.0880161498329532
 40
0.1700977976574204
 40
0.2535865929527963
 40
0.3379278486599534
 40
0.4120670907908261
 40
0.4821545118594867
 40
0.5480733861382783
 40
0.6102746391409738
 40
0.6694013983606073
 40
0.7260968108037512
 40
0.780933545424143
 40
0.8402143341819034
 40
0.8976794232177424
 40
0.9536936771732448
 40
1.0
 40
1.0
 40
1.0
 40
1.0
 10
-8.034835759388246
 20
4.460023170703734
 30
0.0
 10
-8.05077741976077
 20
4.454350428562887
 30
0.0
 10
-8.240456429689168
 20
4.386854315378243
 30
0.0
 10
-8.583765887476883
 20
4.241677792428098
 30
0.0
 10
-9.064660104107015
 20
4.02015004517379
 30
0.0
 10
-9.523673829920853
 20
3.773438200370776
 30
0.0
 10
-9.942963674149942
 20
3.512312697754821
 30
0.0
 10
-10.31553125603423
 20
3.241708651377385
 30
0.0
 10
-10.63772503602235
 20
2.969720084099807
 30
0.0
 10
-10.92176459105043
 20
2.689513543966203
 30
0.0
 10
-11.16992942376889
 20
2.401358066805836
 30
0.0
 10
-11.38452611606619
 20
2.10478766192004
 30
0.0
 10
-11.56714075329049
 20
1.799326574255442
 30
0.0
 10
-11.72367591048781
 20
1.473851870470742
 30
0.0
 10
-11.85028410085956
 20
1.128463034747855
 30
0.0
 10
-11.94054316328778
 20
0.7653000952655281
 30
0.0
 10
-11.99241823892092
 20
0.4199382235659244
 30
0.0
 10
-11.99591816621452
 20
0.1960977715525225
 30
0.0
 10
-11.99750209750404
 20
0.0947962683888227
 30
0.0
  0
SPLINE
  5
194
330
186
100
AcDbEntity
  8
0
  6
Continuous
 62
     7
370
    25
100
AcDbSpline
210
0.0
220
0.0
230
1.0
 70
     8
 71
     3
 72
    21
 73
    17
 74
     0
 42
0.000000001
 43
0.00000001
 40
0.0
 40
0.0
 40
0.0
 40
0.0
 40
0.0706853557748543
 40
0.1577241649475296
 40
0.2453395407966952
 40
0.3321920028933281
 40
0.4169528646719006
 40
0.4987564894712136
 40
0.5769743192024894
 40
0.6513115943995703
 40
0.721969421217657
 40
0.7896104398621765
 40
0.8551697773087445
 40
0.9196626302035271
 40
0.9840595574112043
 40
1.0
 40
1.0
 40
1.0
 40
1.0
 10
-4.975883712418843
 20
7.370996240408144
 30
0.0
 10
-4.95425673314702
 20
7.295020754244343
 30
0.0
 10
-4.905999251684371
 20
7.125492427191189
 30
0.0
 10
-4.86821788631436
 20
6.839500501504871
 30
0.0
 10
-4.861276317879236
 20
6.530344074681338
 30
0.0
 10
-4.891571655600529
 20
6.226541649565974
 30
0.0
 10
-4.953775752620458
 20
5.942532120402602
 30
0.0
 10
-5.040114071354305
 20
5.688859018782353
 30
0.0
 10
-5.140438232401382
 20
5.472496938985391
 30
0.0
 10
-5.244306308507406
 20
5.29640739436865
 30
0.0
 10
-5.342561673844552
 20
5.159904154301652
 30
0.0
 10
-5.427819746248393
 20
5.060021086079876
 30
0.0
 10
-5.495682656246239
 20
4.992005538033745
 30
0.0
 10
-5.539399134384496
 20
4.953617208579947
 30
0.0
 10
-5.559721398732332
 20
4.938683155756515
 30
0.0
 10
-5.555759672118325
 20
4.941380704604152
 30
0.0
 10
-5.554973591172397
 20
4.941915948944927
 30
0.0
  0
SPLINE
  5
195
330
186
100
AcDbEntity
  8
0
  6
Continuous
 62
     7
370
    25
100
AcDbSpline
210
0.0
220
0.0
230
1.0
 70
     8
 71
     3
 72
    21
 73
    17
 74
     0
 42
0.000000001
 43
0.00000001
 40
0.0
 40
0.0
 40
0.0
 40
0.0
 40
0.017877998567326
 40
0.0868522296588112
 40
0.1556697565739239
 40
0.2251519527862759
 40
0.2961526269821391
 40
0.3696741861593732
 40
0.446531282276929
 40
0.5271166711597414
 40
0.6111632302759623
 40
0.6976792653629629
 40
0.7852263927471321
 40
0.8723884074004388
 40
0.9578548198302663
 40
1.0
 40
1.0
 40
1.0
 40
1.0
 10
5.55446980344287
 20
4.942259816756331
 30
0.0
 10
5.555399949944917
 20
4.94162778980978
 30
0.0
 10
5.559918649133079
 20
4.938557370640329
 30
0.0
 10
5.536304941076523
 20
4.955989058981902
 30
0.0
 10
5.48639972750578
 20
5.000564440761463
 30
0.0
 10
5.410648089149348
 20
5.078599167040851
 30
0.0
 10
5.318028500224687
 20
5.191431971620334
 30
0.0
 10
5.214492982352446
 20
5.342873880796155
 30
0.0
 10
5.108525641292835
 20
5.534927183732303
 30
0.0
 10
5.009903936043709
 20
5.767334248321021
 30
0.0
 10
4.92939942282247
 20
6.035722873316313
 30
0.0
 10
4.877057171180955
 20
6.330703460755478
 30
0.0
 10
4.859161032238259
 20
6.639483048529721
 30
0.0
 10
4.879481563524554
 20
6.9455284378405
 30
0.0
 10
4.920848802491937
 20
7.193523449719136
 30
0.0
 10
4.963528055605988
 20
7.327358059637572
 30
0.0
 10
4.977623364467511
 20
7.371558462070118
 30
0.0
  0
SPLINE
  5
196
330
186
100
AcDbEntity
  8
0
  6
Continuous
 62
     7
370
    25
100
AcDbSpline
210
0.0
220
0.0
230
1.0
 70
     8
 71
     3
 72
    24
 73
    20
 74
     0
 42
0.000000001
 43
0.00000001
 40
0.0
 40
0.0
 40
0.0
 40
0.0
 40
0.0469805479393133
 40
0.0984232307641445
 40
0.1503061414495304
 40
0.2034923056172528
 40
0.258834854612713
 40
0.3171237148414511
 40
0.3789290733509025
 40
0.4443323215577928
 40
0.5126954104545696
 40
0.5828044736987431
 40
0.6533699281462773
 40
0.7235043989905169
 40
0.7929828851873265
 40
0.8617930004142189
 40
0.9300051904777076
 40
0.9977109047756625
 40
1.0
 40
1.0
 40
1.0
 40
1.0
 10
9.398457964410047
 20
2.363698828124466
 30
0.0
 10
9.39584784826779
 20
2.444683708263427
 30
0.0
 10
9.390379711460985
 20
2.614345278763197
 30
0.0
 10
9.33729553377985
 20
2.867853891974678
 30
0.0
 10
9.25188989923035
 20
3.120798205690939
 30
0.0
 10
9.132824284710763
 20
3.36509210245646
 30
0.0
 10
8.981090033072194
 20
3.601702854361174
 30
0.0
 10
8.794866411004369
 20
3.831830435894502
 30
0.0
 10
8.57190072521203
 20
4.056245172819528
 30
0.0
 10
8.3101813012817
 20
4.274592941376419
 30
0.0
 10
8.009571323690455
 20
4.485206284419981
 30
0.0
 10
7.672570232386554
 20
4.685654518394212
 30
0.0
 10
7.303641332686048
 20
4.873723440555273
 30
0.0
 10
6.907370368046997
 20
5.048324953522891
 30
0.0
 10
6.48689186284541
 20
5.209202724865059
 30
0.0
 10
6.045047549714745
 20
5.357241437236389
 30
0.0
 10
5.580389060406701
 20
5.491082459398149
 30
0.0
 10
5.257377432301693
 20
5.577080189113147
 30
0.0
 10
5.08428451312889
 20
5.615154032667363
 30
0.0
 10
5.078623719459342
 20
5.61639919147338
 30
0.0
  0
SPLINE
  5
197
330
186
100
AcDbEntity
  8
0
  6
Continuous
 62
     7
370
    25
100
AcDbSpline
210
0.0
220
0.0
230
1.0
 70
     8
 71
     3
 72
    24
 73
    20
 74
     0
 42
0.000000001
 43
0.00000001
 40
0.0
 40
0.0
 40
0.0
 40
0.0
 40
0.0258517355673721
 40
0.0930794557687824
 40
0.1607237318087541
 40
0.2288759608688381
 40
0.2976403963455807
 40
0.3671246917202454
 40
0.4374102976468446
 40
0.5084771724144709
 40
0.580020823143205
 40
0.6508404812010699
 40
0.7113337234412137
 40
0.7683617108943902
 40
0.8223382811253223
 40
0.8739491356651701
 40
0.9291396314904135
 40
0.9822445051302547
 40
1.0
 40
1.0
 40
1.0
 40
1.0
 10
-5.07910692044207
 20
5.614630934044835
 30
0.0
 10
-5.142490991816786
 20
5.600171836769804
 30
0.0
 10
-5.370706031870591
 20
5.548111699385197
 30
0.0
 10
-5.743191072465749
 20
5.446225778519616
 30
0.0
 10
-6.195733359689335
 20
5.308908652709047
 30
0.0
 10
-6.62589198583735
 20
5.158366753551625
 30
0.0
 10
-7.034255800943663
 20
4.994996081229377
 30
0.0
 10
-7.419337320688564
 20
4.81766685439291
 30
0.0
 10
-7.780062184380555
 20
4.625203470929071
 30
0.0
 10
-8.114612940960377
 20
4.416068194252239
 30
0.0
 10
-8.419476808180615
 20
4.189298057269548
 30
0.0
 10
-8.67932463197359
 20
3.954538610270418
 30
0.0
 10
-8.89296018955299
 20
3.716962028424456
 30
0.0
 10
-9.062399118036277
 20
3.482448370574726
 30
0.0
 10
-9.19679869177475
 20
3.242672712467568
 30
0.0
 10
-9.301672933852753
 20
2.989628037521182
 30
0.0
 10
-9.369964465281154
 20
2.724220118358274
 30
0.0
 10
-9.401658269815186
 20
2.507792293308754
 30
0.0
 10
-9.39698358530938
 20
2.385624917436019
 30
0.0
 10
-9.395812248799194
 20
2.355013416801993
 30
0.0
  0
LWPOLYLINE
  5
198
330
186
100
AcDbEntity
  8
0
  6
Continuous
 62
     7
370
    25
100
AcDbPolyline
 90
       41
 70
   128
 43
0.0
 10
-6.0104076387
 20
15.4411176186
 10
-5.2228915285
 20
15.3491969465
 10
-4.4227930152
 20
15.2702675249
 10
-3.6120396061
 20
15.2045195017
 10
-2.7925844772
 20
15.1521112696
 10
-1.9664017677
 20
15.1131690846
 10
-1.1354818241
 20
15.0877867619
 10
-0.3018264054
 20
15.0760254497
 10
0.5325561396
 20
15.0779134821
 10
1.3656557103
 20
15.0934463105
 10
2.1954652967
 20
15.1225865151
 10
3.0199858149
 20
15.1652638946
 10
3.8372309227
 20
15.2213756354
 10
4.6452318052
 20
15.2907865594
 10
5.4420419173
 20
15.3733294496
 10
6.2257416739
 20
15.468805453
 10
6.9944430734
 20
15.5769845595
 10
7.7462942469
 20
15.6976061562
 10
8.4794839191
 20
15.830379655
 10
9.1922457718
 20
15.974985193
 10
9.8828626992
 20
16.1310744029
 10
10.5496709449
 20
16.2982712519
 10
11.1910641091
 20
16.4761729482
 10
11.8054970197
 20
16.6643509112
 10
12.391489454
 20
16.8623518035
 10
12.9476297047
 20
17.0696986237
 10
13.4725779815
 20
17.2858918552
 10
13.9650696378
 20
17.5104106694
 10
14.4239182182
 20
17.742714181
 10
14.8480183162
 20
17.9822427504
 10
15.2363482375
 20
18.2284193323
 10
15.5879724614
 20
18.4806508658
 10
15.9020438943
 20
18.738329703
 10
16.1778059106
 20
19.000835073
 10
16.4145941754
 20
19.2675345774
 10
16.6118382452
 20
19.5377857137
 10
16.7690629415
 20
19.8109374232
 10
16.8858894965
 20
20.0863316597
 10
16.9620364646
 20
20.3633049741
 10
16.9973204012
 20
20.6411901137
 10
16.9999937953
 20
20.7466404168
  0
LWPOLYLINE
  5
199
330
186
100
AcDbEntity
  8
0
  6
Continuous
 62
     7
370
    25
100
AcDbPolyline
 90
       26
 70
   128
 43
0.0
 10
-16.9999958612
 20
20.7378447668
 10
-16.9916563041
 20
20.5642802022
 10
-16.9450578188
 20
20.2865803454
 10
-16.8576372049
 20
20.00997715
 10
-16.7296050664
 20
19.7351369774
 10
-16.561269844
 20
19.4627219415
 10
-16.3530370719
 20
19.1933883141
 10
-16.1054084012
 20
18.9277849434
 10
-15.818980391
 20
18.6665516913
 10
-15.4944430714
 20
18.4103178915
 10
-15.1325782813
 20
18.1597008337
 10
-14.7342577847
 20
17.9153042764
 10
-14.3004411705
 20
17.6777169922
 10
-13.832173541
 20
17.4475113498
 10
-13.3305829938
 20
17.2252419346
 10
-12.7968779046
 20
17.0114442133
 10
-12.2323440157
 20
16.8066332431
 10
-11.6383413385
 20
16.6113024318
 10
-11.0163008777
 20
16.4259223482
 10
-10.3677211832
 20
16.2509395893
 10
-9.6941647403
 20
16.0867757039
 10
-8.9972542053
 20
15.9338261772
 10
-8.2786684969
 20
15.7924594779
 10
-7.540138751
 20
15.6630161708
 10
-6.7834441504
 20
15.5458080962
 10
-6.0104076387
 20
15.4411176186
  0
LWPOLYLINE
  5
19A
330
186
100
AcDbEntity
  8
0
  6
Continuous
 62
     7
370
    25
100
AcDbPolyline
 90
       62
 70
   128
 43
0.0
 10
-5.6568546499
 20
16.6957310881
 10
-4.8915467168
 20
16.6066292804
 10
-4.1136822534
 20
16.5305625711
 10
-3.3252580267
 20
16.4677262224
 10
-2.5282979103
 20
16.4182815343
 10
-1.7248476894
 20
16.3823554306
 10
-0.9169698093
 20
16.3600401331
 10
-0.1067380808
 20
16.3513929248
 10
0.7037676428
 20
16.356436003
 10
1.512466805
 20
16.3751564223
 10
2.3172834865
 20
16.4075061274
 10
3.1161517346
 20
16.4534020773
 10
3.9070208659
 20
16.5127264576
 10
4.6878607307
 20
16.5853269836
 10
5.4566669242
 20
16.6710172907
 10
6.2114659319
 20
16.7695774131
 10
6.9503201957
 20
16.8807543484
 10
7.6713330873
 20
17.0042627071
 10
8.3726537768
 20
17.1397854449
 10
9.0524819842
 20
17.2869746769
 10
9.7090726001
 20
17.4454525704
 10
10.3407401659
 20
17.614812315
 10
10.9458632001
 20
17.7946191667
 10
11.5228883604
 20
17.9844115638
 10
12.0703344315
 20
18.183702312
 10
12.5867961272
 20
18.3919798348
 10
13.0709476978
 20
18.6087094867
 10
13.5215463332
 20
18.8333349259
 10
13.937435353
 20
19.065279542
 10
14.3175471762
 20
19.3039479367
 10
14.6609060611
 20
19.5487274515
 10
14.9666306104
 20
19.7989897408
 10
15.2339360336
 20
20.0540923852
 10
15.4621361615
 20
20.3133805396
 10
15.6506452076
 20
20.5761886151
 10
15.7989792719
 20
20.8418419871
 10
15.9067575831
 20
21.1096587274
 10
15.9737034756
 20
21.378951354
 10
15.9996451005
 20
21.6490285968
 10
15.9845158658
 20
21.9191971712
 10
15.9283546081
 20
22.1887635586
 10
15.8313054926
 20
22.4570357857
 10
15.693617643
 20
22.7233252017
 10
15.515644502
 20
22.9869482454
 10
15.297842924
 20
23.2472282002
 10
15.0407720027
 20
23.5034969313
 10
14.7450916353
 20
23.7550966005
 10
14.4115608292
 20
24.0013813551
 10
14.0410357532
 20
24.2417189855
 10
13.6344675397
 20
24.4754925486
 10
13.1928998437
 20
24.702101951
 10
12.7174661629
 20
24.9209654896
 10
12.2093869289
 20
25.1315213449
 10
11.6699663737
 20
25.3332290229
 10
11.1005891823
 20
25.5255707429
 10
10.5027169376
 20
25.7080527666
 10
9.8778843691
 20
25.8802066651
 10
9.2276954132
 20
26.0415905219
 10
8.5538190955
 20
26.191790067
 10
7.8579852468
 20
26.3304197403
 10
7.1419800627
 20
26.4571236813
 10
6.6455374915
 20
26.5361468619
  0
LWPOLYLINE
  5
19B
330
186
100
AcDbEntity
  8
0
  6
Continuous
 62
     7
370
    25
100
AcDbPolyline
 90
       48
 70
   128
 43
0.0
 10
-6.6455374915
 20
26.5361468619
 10
-6.9503201957
 20
26.4884615656
 10
-7.6713330873
 20
26.364953207
 10
-8.3726537768
 20
26.2294304692
 10
-9.0524819842
 20
26.0822412372
 10
-9.7090726001
 20
25.9237633437
 10
-10.3407401659
 20
25.754403599
 10
-10.9458632001
 20
25.5745967473
 10
-11.5228883604
 20
25.3848043502
 10
-12.0703344315
 20
25.1855136021
 10
-12.5867961272
 20
24.9772360793
 10
-13.0709476978
 20
24.7605064274
 10
-13.5215463332
 20
24.5358809882
 10
-13.937435353
 20
24.303936372
 10
-14.3175471762
 20
24.0652679774
 10
-14.6609060611
 20
23.8204884626
 10
-14.9666306104
 20
23.5702261732
 10
-15.2339360336
 20
23.3151235289
 10
-15.4621361615
 20
23.0558353745
 10
-15.6506452076
 20
22.793027299
 10
-15.7989792719
 20
22.5273739269
 10
-15.9067575831
 20
22.2595571867
 10
-15.9737034756
 20
21.9902645601
 10
-15.9996451005
 20
21.7201873173
 10
-15.9845158658
 20
21.4500187428
 10
-15.9283546081
 20
21.1804523555
 10
-15.8313054926
 20
20.9121801284
 10
-15.693617643
 20
20.6458907124
 10
-15.515644502
 20
20.3822676687
 10
-15.297842924
 20
20.1219877138
 10
-15.0407720027
 20
19.8657189827
 10
-14.7450916353
 20
19.6141193135
 10
-14.4115608292
 20
19.367834559
 10
-14.0410357532
 20
19.1274969285
 10
-13.6344675397
 20
18.8937233654
 10
-13.1928998437
 20
18.667113963
 10
-12.7174661629
 20
18.4482504244
 10
-12.2093869289
 20
18.2376945692
 10
-11.6699663737
 20
18.0359868912
 10
-11.1005891823
 20
17.8436451712
 10
-10.5027169376
 20
17.6611631475
 10
-9.8778843691
 20
17.489009249
 10
-9.2276954132
 20
17.3276253921
 10
-8.5538190955
 20
17.177425847
 10
-7.8579852468
 20
17.0387961738
 10
-7.1419800627
 20
16.9120922328
 10
-6.4076415183
 20
16.7976392712
 10
-5.6568546499
 20
16.6957310881
  0
LWPOLYLINE
  5
19C
330
186
100
AcDbEntity
  8
0
  6
Continuous
 62
     7
370
    25
100
AcDbPolyline
 90
       34
 70
   128
 43
0.0
 10
-4.2426406861
 20
-3.741657386
 10
-3.576561192
 20
-3.8182050754
 10
-2.8981525505
 20
-3.8815906208
 10
-2.2097533768
 20
-3.9315955193
 10
-1.5137367254
 20
-3.9680473936
 10
-0.8125019099
 20
-3.9908205864
 10
-0.108466232
 20
-3.999836594
 10
0.5959433514
 20
-3.9950643362
 10
1.2982985947
 20
-3.976520264
 10
1.9961783337
 20
-3.9442683027
 10
2.6871768325
 20
-3.8984196314
 10
3.3689120761
 20
-3.8391323001
 10
4.0390339818
 20
-3.7666106844
 10
4.6952325007
 20
-3.6811047814
 10
5.3352455805
 20
-3.5829093476
 10
5.9568669635
 20
-3.4723628831
 10
6.557953792
 20
-3.3498464644
 10
7.1364339953
 20
-3.2157824309
 10
7.6903134322
 20
-3.0706329292
 10
8.2176827655
 20
-2.9148983197
 10
8.716724044
 20
-2.7491154518
 10
9.1857169689
 20
-2.5738558135
 10
9.6230448245
 20
-2.389723561
 10
10.0272000511
 20
-2.1973534363
 10
10.3967894419
 20
-1.997408579
 10
10.7305389456
 20
-1.7905782407
 10
11.0272980586
 20
-1.5775754082
 10
11.2860437908
 20
-1.3591343464
 10
11.505884192
 20
-1.136008067
 10
11.6860614268
 20
-0.9089657325
 10
11.825954387
 20
-0.6787900047
 10
11.9250808325
 20
-0.4462743472
 10
11.983099054
 20
-0.2122202896
 10
12.0
 20
0.0
  0
LWPOLYLINE
  5
19D
330
186
100
AcDbEntity
  8
0
  6
Continuous
 62
     7
370
    25
100
AcDbPolyline
 90
       22
 70
   128
 43
0.0
 10
-12.0
 20
0.0
 10
-11.9926498925
 20
-0.1399795844
 10
-11.9473341136
 20
-0.374344995
 10
-11.860833399
 20
-0.6074199609
 10
-11.7334459346
 20
-0.8384010243
 10
-11.5656108513
 20
-1.0664919457
 10
-11.3579067114
 20
-1.2909064484
 10
-11.1110495142
 20
-1.5108709292
 10
-10.8258902276
 20
-1.7256271249
 10
-10.5034118546
 20
-1.9344347264
 10
-10.1447260451
 20
-2.1365739307
 10
-9.7510692633
 20
-2.331347922
 10
-9.3237985256
 20
-2.518085274
 10
-8.864386723
 20
-2.6961422645
 10
-8.3744175429
 20
-2.8649050941
 10
-7.8555800108
 20
-3.0237920022
 10
-7.3096626669
 20
-3.172255273
 10
-6.7385474016
 20
-3.3097831226
 10
-6.1442029673
 20
-3.4359014642
 10
-5.5286781927
 20
-3.5501755416
 10
-4.8940949189
 20
-3.6522114285
 10
-4.2426406861
 20
-3.741657386
  0
LWPOLYLINE
  5
19E
330
186
100
AcDbEntity
  8
0
  6
Continuous
 62
     7
370
    25
100
AcDbPolyline
 90
       31
 70
   128
 43
0.0
 10
-3.3234018708
 20
-0.5739423483
 10
-2.7350081163
 20
-0.6407493569
 10
-2.1346548671
 20
-0.6944478713
 10
-1.5249673154
 20
-0.7348030818
 10
-0.9086114695
 20
-0.7616385253
 10
-0.288282497
 20
-0.7748368571
 10
0.3333070616
 20
-0.7743403644
 10
0.9534391533
 20
-0.7601512182
 10
1.569402098
 20
-0.7323314639
 10
2.1785024468
 20
-0.6910027504
 10
2.7780767586
 20
-0.6363457975
 10
3.3655032476
 20
-0.5685996062
 10
3.9382132472
 20
-0.4880604134
 10
4.4937024423
 20
-0.3950803965
 10
5.02954182
 20
-0.2900661333
 10
5.5433882911
 20
-0.1734768247
 10
6.0329949355
 20
-0.0458222858
 10
6.4962208282
 20
0.0923392823
 10
6.9310404
 20
0.2404037344
 10
7.3355522957
 20
0.3977236222
 10
7.7079876877
 20
0.563611026
 10
8.0467180107
 20
0.7373405623
 10
8.3502620832
 20
0.9181525561
 10
8.6172925842
 20
1.1052563625
 10
8.8466418573
 20
1.2978338241
 10
9.0373070166
 20
1.4950428488
 10
9.1884543316
 20
1.6960210917
 10
9.2994228738
 20
1.899889726
 10
9.3697274058
 20
2.105757286
 10
9.3990605039
 20
2.3127235653
 10
9.3999935206
 20
2.3607015658
  0
LWPOLYLINE
  5
19F
330
186
100
AcDbEntity
  8
0
  6
Continuous
 62
     7
370
    25
100
AcDbPolyline
 90
       20
 70
   128
 43
0.0
 10
-9.3999993912
 20
2.3558948684
 10
-9.398315663
 20
2.2977092197
 10
-9.3660072728
 20
2.0907921763
 10
-9.2927437158
 20
1.8850392908
 10
-9.178845355
 20
1.6813502683
 10
-9.0248102388
 20
1.4806157889
 10
-8.8313119238
 20
1.2837136136
 10
-8.5991965287
 20
1.0915047454
 10
-8.3294790352
 20
0.9048296648
 10
-8.0233388491
 20
0.7245046545
 10
-7.6821146438
 20
0.5513182297
 10
-7.3072985057
 20
0.3860276908
 10
-6.9005294105
 20
0.2293558111
 10
-6.4635860559
 20
0.0819876769
 10
-5.9983790841
 20
-0.0554323084
 10
-5.5069427267
 20
-0.1823032421
 10
-4.99142591
 20
-0.2980703501
 10
-4.4540828578
 20
-0.4022274121
 10
-3.8972632346
 20
-0.4943189758
 10
-3.3234018708
 20
-0.5739423483
  0
LWPOLYLINE
  5
1A0
330
186
100
AcDbEntity
  8
0
  6
Continuous
 62
     8
370
    25
100
AcDbPolyline
 90
       22
 70
   128
 43
0.0
 10
-1.7677669526
 20
5.983448422
 10
-1.3351339416
 20
5.9363238221
 10
-0.8914375903
 20
5.9025082746
 10
-0.4403545064
 20
5.8822819858
 10
0.0143774936
 20
5.875812557
 10
0.4689903572
 20
5.8831535961
 10
0.919717019
 20
5.9042442727
 10
1.3628226159
 20
5.938909823
 10
1.7946354354
 20
5.9868629973
 10
2.2115773405
 20
6.0477064405
 10
2.6101934192
 20
6.1209359846
 10
2.9871806133
 20
6.2059448266
 10
3.339415088
 20
6.3020285564
 10
3.6639781175
 20
6.408390994
 10
3.9581802705
 20
6.5241507868
 10
4.2195836952
 20
6.6483487125
 10
4.4460223204
 20
6.7799556282
 10
4.6356198045
 20
6.9178809975
 10
4.786805083
 20
7.0609819273
 10
4.898325387
 20
7.2080726382
 10
4.9692566242
 20
7.3579342903
 10
4.9746867575
 20
7.3749771707
  0
LWPOLYLINE
  5
1A2
330
186
100
AcDbEntity
  8
0
  6
Continuous
 62
     8
370
    25
100
AcDbPolyline
 90
       59
 70
   128
 43
0.0
 10
-9.1864062931
 20
3.2861763058
 10
-9.3461733612
 20
3.088006986
 10
-9.4695884846
 20
2.8826855643
 10
-9.5524533764
 20
2.6751131731
 10
-9.5944131963
 20
2.4661786693
 10
-9.5952882659
 20
2.2567767425
 10
-9.555074838
 20
2.0478040838
 10
-9.4739451128
 20
1.8401555463
 10
-9.3522465001
 20
1.6347203129
 10
-9.1905001322
 20
1.4323780887
 10
-8.9893986317
 20
1.2339953344
 10
-8.7498031462
 20
1.0404215552
 10
-8.4727396604
 20
0.8524856639
 10
-8.1593946025
 20
0.6709924307
 10
-7.8111097643
 20
0.4967190376
 10
-7.4293765549
 20
0.3304117499
 10
-7.0158296146
 20
0.172782721
 10
-6.5722398147
 20
0.0245069427
 10
-6.100506675
 20
-0.1137806455
 10
-5.6026502291
 20
-0.2414878749
 10
-5.0808023748
 20
-0.3580678835
 10
-4.5371977447
 20
-0.4630214577
 10
-3.9741641373
 20
-0.5558991704
 10
-3.3941125489
 20
-0.6363033048
 10
-2.7995268495
 20
-0.7038895581
 10
-2.1929531464
 20
-0.7583685156
 10
-1.5769888812
 20
-0.7995068901
 10
-0.9542717076
 20
-0.8271285207
 10
-0.327468196
 20
-0.8411151273
 10
0.3007375847
 20
-0.8414068172
 10
0.9276555609
 20
-0.8280023412
 10
1.5506011736
 20
-0.8009590995
 10
2.166906874
 20
-0.7603928953
 10
2.7739335465
 20
-0.7064774393
 10
3.3690818097
 20
-0.6394436058
 10
3.9498031473
 20
-0.559578444
 10
4.5136108215
 20
-0.4672239488
 10
5.0580905212
 20
-0.3627755962
 10
5.5809107007
 20
-0.2466806501
 10
6.0798325639
 20
-0.119436247
 10
6.5527196506
 20
0.0184127331
 10
6.9975469858
 20
0.1662759996
 10
7.4124097505
 20
0.3235203795
 10
7.7955314386
 20
0.4894725281
 10
8.1452714644
 20
0.6634218128
 10
8.4601321872
 20
0.8446233562
 10
8.7387653253
 20
1.0323012252
 10
8.9799777286
 20
1.2256517547
 10
9.1827364886
 20
1.4238469877
 10
9.3461733612
 20
1.6260382221
 10
9.4695884846
 20
1.8313596437
 10
9.5524533764
 20
2.0389320349
 10
9.5944131963
 20
2.2478665387
 10
9.5952882659
 20
2.4572684656
 10
9.555074838
 20
2.6662411243
 10
9.4739451128
 20
2.8738896618
 10
9.3522465001
 20
3.0793248952
 10
9.1905001322
 20
3.2816671193
 10
9.1725581547
 20
3.301255208
  0
LWPOLYLINE
  5
1A3
330
186
100
AcDbEntity
  8
0
  6
Continuous
 62
     8
370
    25
100
AcDbPolyline
 90
       56
 70
   128
 43
0.0
 10
11.9999998179
 20
0.0949777166
 10
11.9966245228
 20
-0.0005874607
 10
11.9592443031
 20
-0.235108379
 10
11.8806380908
 20
-0.4684938242
 10
11.7610768578
 20
-0.6999392684
 10
11.6009727564
 20
-0.9286468711
 10
11.4008776987
 20
-1.1538282298
 10
11.1614814537
 20
-1.3747070978
 10
10.8836092699
 20
-1.5905220598
 10
10.5682190303
 20
-1.800529157
 10
10.2163979504
 20
-2.0040044514
 10
9.8293588303
 20
-2.2002465215
 10
9.408435874
 20
-2.3885788802
 10
8.9550800902
 20
-2.5683523068
 10
8.4708542902
 20
-2.7389470852
 10
7.9574277007
 20
-2.8997751398
 10
7.4165702093
 20
-3.050282063
 10
6.850146264
 20
-3.1899490261
 10
6.2601084455
 20
-3.3182945684
 10
5.6484907363
 20
-3.434876256
 10
5.0174015094
 20
-3.5392922078
 10
4.3690162601
 20
-3.6311824803
 10
3.7055701066
 20
-3.7102303088
 10
3.0293500853
 20
-3.7761631989
 10
2.3426872667
 20
-3.8287538665
 10
1.6479487198
 20
-3.8678210205
 10
0.9475293523
 20
-3.8932299883
 10
0.2438436548
 20
-3.9048931801
 10
-0.4606826223
 20
-3.9027703903
 10
-1.163620831
 20
-3.8868689366
 10
-1.8625477976
 20
-3.8572436348
 10
-2.5550541761
 20
-3.8139966092
 10
-3.2387527535
 20
-3.7572769414
 10
-3.9112866793
 20
-3.6872801558
 10
-4.5703375896
 20
-3.6042475458
 10
-5.2136335994
 20
-3.5084653421
 10
-5.8389571342
 20
-3.4002637257
 10
-6.4441525741
 20
-3.2800156901
 10
-7.0271336851
 20
-3.148135755
 10
-7.5858908105
 20
-3.0050785381
 10
-8.1184977988
 20
-2.851337187
 10
-8.6231186434
 20
-2.6874416802
 10
-9.0980138116
 20
-2.5139569994
 10
-9.5415462415
 20
-2.3314811822
 10
-9.9521869848
 20
-2.1406432606
 10
-10.3285204779
 20
-1.9421010923
 10
-10.6692494212
 20
-1.7365390935
 10
-10.9731992515
 20
-1.5246658789
 10
-11.2393221907
 20
-1.3072118193
 10
-11.466700858
 20
-1.084926524
 10
-11.654551432
 20
-0.8585762563
 10
-11.8022263528
 20
-0.6289412927
 10
-11.9092165545
 20
-0.3968132323
 10
-11.9751532195
 20
-0.1629922687
 10
-11.9998090506
 20
0.0717155689
 10
-11.9999999842
 20
0.0944860838
  0
LWPOLYLINE
  5
1A4
330
186
100
AcDbEntity
  8
0
  6
Continuous
 62
     8
370
    25
100
AcDbPolyline
 90
       42
 70
   128
 43
0.0
 10
-2.9698484803
 20
0.6806714754
 10
-2.4145039456
 20
0.6179962321
 10
-1.8473961904
 20
0.5683866214
 10
-1.2712881066
 20
0.5320843363
 10
-0.688986435
 20
0.5092662378
 10
-0.1033280907
 20
0.5000434935
 10
0.4828336576
 20
0.5044610356
 10
1.0666430889
 20
0.5224973424
 10
1.6452559423
 20
0.5540645427
 10
2.2158532741
 20
0.5990088443
 10
2.7756551915
 20
0.6571112832
 10
3.3219343959
 20
0.72808879
 10
3.8520294697
 20
0.8115955694
 10
4.3633578432
 20
0.907224785
 10
4.8534283759
 20
1.0145105406
 10
5.3198534934
 20
1.132930151
 10
5.7603608194
 20
1.2619066876
 10
6.1728042466
 20
1.4008117897
 10
6.5551743919
 20
1.5489687257
 10
6.9056083866
 20
1.7056556899
 10
7.2223989513
 20
1.8701093191
 10
7.5040027143
 20
2.0415284117
 10
7.7490477304
 20
2.2190778312
 10
7.9563401649
 20
2.4018925746
 10
8.1248701099
 20
2.589081987
 10
8.2538165044
 20
2.7797341002
 10
8.3425511346
 20
2.9729200764
 10
8.3906416942
 20
3.1676987329
 10
8.3978538909
 20
3.3631211277
 10
8.3641525876
 20
3.5582351824
 10
8.2897019737
 20
3.7520903212
 10
8.174864765
 20
3.9437421011
 10
8.020200437
 20
4.132256814
 10
7.8264624986
 20
4.3167160351
 10
7.5945948216
 20
4.4962210977
 10
7.325727042
 20
4.6698974712
 10
7.0211690567
 20
4.8368990217
 10
6.6824046415
 20
4.9964121344
 10
6.3110842226
 20
5.1476596776
 10
5.9090168357
 20
5.2899047883
 10
5.4781613129
 20
5.4224544627
 10
5.1390539909
 20
5.5146836361
  0
LWPOLYLINE
  5
1A5
330
186
100
AcDbEntity
  8
0
  6
Continuous
 62
     8
370
    25
100
AcDbPolyline
 90
       32
 70
   128
 43
0.0
 10
-5.1310442431
 20
5.5167460417
 10
-5.3198534934
 20
5.4667331403
 10
-5.7603608194
 20
5.3377566037
 10
-6.1728042466
 20
5.1988515015
 10
-6.5551743919
 20
5.0506945655
 10
-6.9056083866
 20
4.8940076014
 10
-7.2223989513
 20
4.7295539722
 10
-7.5040027143
 20
4.5581348796
 10
-7.7490477304
 20
4.3805854601
 10
-7.9563401649
 20
4.1977707166
 10
-8.1248701099
 20
4.0105813043
 10
-8.2538165044
 20
3.8199291911
 10
-8.3425511346
 20
3.6267432149
 10
-8.3906416942
 20
3.4319645584
 10
-8.3978538909
 20
3.2365421636
 10
-8.3641525876
 20
3.0414281088
 10
-8.2897019737
 20
2.8475729701
 10
-8.174864765
 20
2.6559211902
 10
-8.020200437
 20
2.4674064773
 10
-7.8264624986
 20
2.2829472561
 10
-7.5945948216
 20
2.1034421935
 10
-7.325727042
 20
1.9297658201
 10
-7.0211690567
 20
1.7627642696
 10
-6.6824046415
 20
1.6032511568
 10
-6.3110842226
 20
1.4520036137
 10
-5.9090168357
 20
1.309758503
 10
-5.4781613129
 20
1.1772088286
 10
-5.0206167387
 20
1.0550003592
 10
-4.5386122245
 20
0.9437284822
 10
-4.0344960477
 20
0.8439353029
 10
-3.5107242117
 20
0.7561070038
 10
-2.9698484803
 20
0.6806714754
  0
LINE
  5
1A6
330
186
100
AcDbEntity
  8
0
  6
Continuous
 62
     7
370
    25
100
AcDbLine
 10
-12.0
 20
0.0942809042
 30
0.0
 11
-12.0
 21
0.0
 31
0.0
  0
LINE
  5
1A7
330
186
100
AcDbEntity
  8
0
  6
Continuous
 62
     7
370
    25
100
AcDbLine
 10
12.0
 20
0.0
 30
0.0
 11
12.0
 21
0.0942809042
 31
0.0
  0
ARC
  5
1A8
330
186
100
AcDbEntity
  8
0
  6
Continuous
 62
     7
370
    25
100
AcDbCircle
 10
0.0
 20
-17.1277033024
 30
0.0
 40
44.16667272639743
100
AcDbArc
 50
81.3461262657
 51
98.6538737343
  0
ARC
  5
1A9
330
186
100
AcDbEntity
  8
0
  6
Continuous
 62
     8
370
    25
100
AcDbCircle
 10
-1.9730823823
 20
9.9012018362
 30
0.0
 40
3.923129648584633
100
AcDbArc
 50
220.0826565148
 51
272.9999223156
  0
VIEWPORT
  5
1B8
330
186
100
AcDbEntity
  8
0
100
AcDbViewport
 10
0.0
 20
0.0
 30
0.0
 40
205.6
 41
156.0
 68
     1
 69
     1
 12
0.0
 22
13.0
 13
0.0
 23
0.0
 14
10.0
 24
10.0
 15
10.0
 25
10.0
 16
0.0
 26
0.0
 36
1.0
 17
0.0
 27
0.0
 37
0.0
 42
50.0
 43
0.0
 44
0.0
 45
29.4093385214
 50
0.0
 51
0.0
 72
   100
 90
   557152
  1

281
     0
 71
     1
 74
     0
110
0.0
120
0.0
130
0.0
111
1.0
121
0.0
131
0.0
112
0.0
122
1.0
132
0.0
 79
     0
146
0.0
  0
ENDBLK
  5
189
330
186
100
AcDbEntity
  8
0
100
AcDbBlockEnd
  0
ENDSEC
  0
SECTION
  2
ENTITIES
  0
LINE
  5
90
330
1F
100
AcDbEntity
  8
0
  6
Continuous
 62
     7
370
    25
100
AcDbLine
 10
-12.0
 20
0.1
 30
0.0
 11
-12.0
 21
0.0
 31
0.0
  0
LINE
  5
91
330
1F
100
AcDbEntity
  8
0
  6
Continuous
 62
     7
370
    25
100
AcDbLine
 10
12.0
 20
0.0
 30
0.0
 11
12.0
 21
0.1
 31
0.0
  0
LINE
  5
92
330
1F
100
AcDbEntity
  8
0
  6
Continuous
 62
     7
370
    25
100
AcDbLine
 10
-17.0
 20
22.0
 30
0.0
 11
17.0
 21
22.0
 31
0.0
  0
LINE
  5
93
330
1F
100
AcDbEntity
  8
0
  6
Continuous
 62
     7
370
    25
100
AcDbLine
 10
-16.0000011362
 20
23.0
 30
0.0
 11
16.0000011362
 21
23.0
 31
0.0
  0
LINE
  5
94
330
1F
100
AcDbEntity
  8
0
  6
Continuous
 62
     7
370
    25
100
AcDbLine
 10
-12.0
 20
0.0
 30
0.0
 11
12.0
 21
0.0
 31
0.0
  0
LINE
  5
95
330
1F
100
AcDbEntity
  8
0
  6
Continuous
 62
     7
370
    25
100
AcDbLine
 10
-9.6
 20
2.5
 30
0.0
 11
9.6
 21
2.5
 31
0.0
  0
LINE
  5
96
330
1F
100
AcDbEntity
  8
0
  6
Continuous
 62
     7
370
    25
100
AcDbLine
 10
-8.4
 20
3.5
 30
0.0
 11
8.4
 21
3.5
 31
0.0
  0
LINE
  5
97
330
1F
100
AcDbEntity
  8
0
  6
Continuous
 62
     8
370
    25
100
AcDbLine
 10
-17.1612441167
 20
18.0
 30
0.0
 11
17.1612441167
 21
18.0
 31
0.0
  0
LINE
  5
98
330
1F
100
AcDbEntity
  8
0
  6
Continuous
 62
     8
370
    25
100
AcDbLine
 10
-5.0
 20
8.0
 30
0.0
 11
5.0
 21
8.0
 31
0.0
  0
LINE
  5
99
330
1F
100
AcDbEntity
  8
0
  6
Continuous
 62
     8
370
    25
100
AcDbLine
 10
12.0
 20
0.1
 30
0.0
 11
-12.0
 21
0.1
 31
0.0
  0
ARC
  5
9A
330
1F
100
AcDbEntity
  8
0
  6
Continuous
 62
     7
370
    25
100
AcDbCircle
 10
-16.9966120347
 20
19.9966120347
 30
0.0
 40
2.003387965303371
100
AcDbArc
 50
90.0968938275
 51
265.2862987057
  0
ARC
  5
9B
330
1F
100
AcDbEntity
  8
0
  6
Continuous
 62
     7
370
    25
100
AcDbCircle
 10
16.9966120347
 20
19.9966120347
 30
0.0
 40
2.003387965303371
100
AcDbArc
 50
274.7137012944
 51
89.9031061725
  0
ARC
  5
9C
330
1F
100
AcDbEntity
  8
0
  6
Continuous
 62
     7
370
    25
100
AcDbCircle
 10
-18.2971725114
 20
4.223776826
 30
0.0
 40
13.82297573814242
100
AcDbArc
 50
15.8538533654
 51
85.2862987057
  0
ARC
  5
9D
330
1F
100
AcDbEntity
  8
0
  6
Continuous
 62
     7
370
    25
100
AcDbCircle
 10
18.2971725114
 20
4.223776826
 30
0.0
 40
13.82297573814242
100
AcDbArc
 50
94.7137012943
 51
164.1461466346
  0
ARC
  5
9E
330
1F
100
AcDbEntity
  8
0
  6
Continuous
 62
     7
370
    25
100
AcDbCircle
 10
-16.0
 20
22.0
 30
0.0
 40
1.000000000000004
100
AcDbArc
 50
90.0000650994
 51
180.0
  0
ARC
  5
9F
330
1F
100
AcDbEntity
  8
0
  6
Continuous
 62
     7
370
    25
100
AcDbCircle
 10
16.0
 20
22.0
 30
0.0
 40
0.9999999999999964
100
AcDbArc
 50
360.0
 51
89.9999349006
  0
ARC
  5
A0
330
1F
100
AcDbEntity
  8
0
  6
Continuous
 62
     7
370
    25
100
AcDbCircle
 10
0.0
 20
-18.1666727264
 30
0.0
 40
44.16667272639648
100
AcDbArc
 50
68.7606909216
 51
111.2393090784
  0
ARC
  5
A1
330
1F
100
AcDbEntity
  8
0
  6
Continuous
 62
     7
370
    25
100
AcDbCircle
 10
9.6
 20
0.1
 30
0.0
 40
2.399999999999999
100
AcDbArc
 50
0.0
 51
90.0
  0
ARC
  5
A2
330
1F
100
AcDbEntity
  8
0
  6
Continuous
 62
     7
370
    25
100
AcDbCircle
 10
-9.6
 20
0.1
 30
0.0
 40
2.399999999999999
100
AcDbArc
 50
90.0
 51
180.0
  0
ARC
  5
A3
330
1F
100
AcDbEntity
  8
0
  6
Continuous
 62
     7
370
    25
100
AcDbCircle
 10
-8.4
 20
2.5
 30
0.0
 40
1.000000000000002
100
AcDbArc
 50
90.0
 51
180.0
  0
ARC
  5
A4
330
1F
100
AcDbEntity
  8
0
  6
Continuous
 62
     7
370
    25
100
AcDbCircle
 10
8.4
 20
2.5
 30
0.0
 40
1.0
100
AcDbArc
 50
0.0
 51
90.0
  0
ARC
  5
A5
330
1F
100
AcDbEntity
  8
0
  6
Continuous
 62
     7
370
    25
100
AcDbCircle
 10
-8.4
 20
7.0344444444
 30
0.0
 40
3.534444444444447
100
AcDbArc
 50
270.0
 51
15.8538533654
  0
ARC
  5
A6
330
1F
100
AcDbEntity
  8
0
  6
Continuous
 62
     7
370
    25
100
AcDbCircle
 10
8.4
 20
7.0344444444
 30
0.0
 40
3.534444444444447
100
AcDbArc
 50
164.1461466346
 51
270.0
  0
CIRCLE
  5
A7
330
1B
100
AcDbEntity
 67
     1
  8
0
  6
Continuous
 62
     7
370
    25
100
AcDbCircle
 10
0.0
 20
0.0
 30
0.0
 40
18.99999999999994
  0
CIRCLE
  5
A8
330
1B
100
AcDbEntity
 67
     1
  8
0
  6
Continuous
 62
     7
370
    25
100
AcDbCircle
 10
0.0
 20
0.0
 30
0.0
 40
16.00000113619936
  0
CIRCLE
  5
A9
330
1B
100
AcDbEntity
 67
     1
  8
0
  6
Continuous
 62
     7
370
    25
100
AcDbCircle
 10
0.0
 20
0.0
 30
0.0
 40
17.00000000000001
  0
VIEWPORT
  5
1AA
330
1B
100
AcDbEntity
 67
     1
  8
0
100
AcDbViewport
 10
0.0
 20
0.0
 30
0.0
 40
205.6
 41
156.0
 68
     1
 69
     1
 12
0.0
 22
13.0
 13
0.0
 23
0.0
 14
10.0
 24
10.0
 15
10.0
 25
10.0
 16
0.0
 26
0.0
 36
1.0
 17
0.0
 27
0.0
 37
0.0
 42
50.0
 43
0.0
 44
0.0
 45
29.4093385214
 50
0.0
 51
0.0
 72
   100
 90
   557152
  1

281
     0
 71
     1
 74
     0
110
0.0
120
0.0
130
0.0
111
1.0
121
0.0
131
0.0
112
0.0
122
1.0
132
0.0
 79
     0
146
0.0
  0
ENDSEC
  0
SECTION
  2
OBJECTS
  0
DICTIONARY
  5
C
330
0
100
AcDbDictionary
281
     1
  3
ACAD_GROUP
350
D
  3
ACAD_LAYOUT
350
1A
  3
ACAD_MLINESTYLE
350
17
  3
ACAD_PLOTSETTINGS
350
19
  3
ACAD_PLOTSTYLENAME
350
E
  3
ACAD_SCALELIST
350
47
  0
DICTIONARY
  5
D
102
{ACAD_REACTORS
330
C
102
}
330
C
100
AcDbDictionary
281
     1
  0
DICTIONARY
  5
1A
102
{ACAD_REACTORS
330
C
102
}
330
C
100
AcDbDictionary
281
     1
  3
_Back
350
D9
  3
_Bottom
350
13F
  3
_Dimetric
350
187
  3
_Isometric
350
147
  3
_Left
350
10D
  3
_Right
350
26
  3
_Top
350
1E
  3
_Trimetric
350
166
  3
Model
350
22
  0
DICTIONARY
  5
17
102
{ACAD_REACTORS
330
C
102
}
330
C
100
AcDbDictionary
281
     1
  3
Standard
350
18
  0
DICTIONARY
  5
19
102
{ACAD_REACTORS
330
C
102
}
330
C
100
AcDbDictionary
281
     1
  0
ACDBDICTIONARYWDFLT
  5
E
102
{ACAD_REACTORS
330
C
102
}
330
C
100
AcDbDictionary
281
     1
  3
Normal
350
F
100
AcDbDictionaryWithDefault
340
F
  0
DICTIONARY
  5
47
102
{ACAD_REACTORS
330
C
102
}
330
C
100
AcDbDictionary
281
     1
  3
A0
350
48
  3
A1
350
49
  3
A2
350
4A
  3
A3
350
4B
  3
A4
350
4C
  3
A5
350
4D
  3
A6
350
4E
  3
A7
350
4F
  3
A8
350
50
  3
A9
350
51
  3
B0
350
52
  3
B1
350
53
  3
B2
350
54
  3
B3
350
55
  3
B4
350
56
  3
B5
350
57
  3
B6
350
58
  3
B7
350
59
  3
B8
350
5A
  3
B9
350
5B
  3
C0
350
5C
  3
C1
350
5D
  3
C2
350
5E
  3
C3
350
5F
  3
C4
350
60
  3
C5
350
61
  3
C6
350
62
  3
C7
350
63
  3
C8
350
64
  3
C9
350
65
  3
D0
350
66
  3
D1
350
67
  3
D2
350
68
  0
LAYOUT
  5
D9
102
{ACAD_REACTORS
330
1A
102
}
330
1A
100
AcDbPlotSettings
  1

  2
none_device
  4
ISO_A4_(210.00_x_297.00_MM)
  6

 40
7.5
 41
20.0
 42
7.5
 43
20.0
 44
210.0
 45
297.0
 46
0.0
 47
0.0
 48
0.0
 49
0.0
140
0.0
141
0.0
142
1.0
143
0.1948717949
 70
   688
 72
     1
 73
     1
 74
     1
  7

 75
     0
147
5.1315789474
148
19.0
149
19.0
100
AcDbLayout
  1
_Back
 70
     1
 71
     3
 10
0.0
 20
0.0
 11
0.0
 21
0.0
 12
0.0
 22
0.0
 32
0.0
 14
0.0
 24
0.0
 34
0.0
 15
0.0
 25
0.0
 35
0.0
146
0.0
 13
0.0
 23
0.0
 33
0.0
 16
1.0
 26
0.0
 36
0.0
 17
0.0
 27
1.0
 37
0.0
 76
     0
330
D8
331
1AE
  0
LAYOUT
  5
13F
102
{ACAD_REACTORS
330
1A
102
}
330
1A
100
AcDbPlotSettings
  1

  2
none_device
  4
ISO_A4_(210.00_x_297.00_MM)
  6

 40
7.5
 41
20.0
 42
7.5
 43
20.0
 44
210.0
 45
297.0
 46
0.0
 47
0.0
 48
0.0
 49
0.0
140
0.0
141
0.0
142
1.0
143
0.1948717949
 70
   688
 72
     1
 73
     1
 74
     1
  7

 75
     0
147
5.1315789474
148
19.0
149
19.0
100
AcDbLayout
  1
_Bottom
 70
     1
 71
     5
 10
0.0
 20
0.0
 11
0.0
 21
0.0
 12
0.0
 22
0.0
 32
0.0
 14
0.0
 24
0.0
 34
0.0
 15
0.0
 25
0.0
 35
0.0
146
0.0
 13
0.0
 23
0.0
 33
0.0
 16
1.0
 26
0.0
 36
0.0
 17
0.0
 27
1.0
 37
0.0
 76
     0
330
13E
331
1B2
  0
LAYOUT
  5
187
102
{ACAD_REACTORS
330
1A
102
}
330
1A
100
AcDbPlotSettings
  1

  2
none_device
  4
ISO_A4_(210.00_x_297.00_MM)
  6

 40
7.5
 41
20.0
 42
7.5
 43
20.0
 44
210.0
 45
297.0
 46
0.0
 47
0.0
 48
0.0
 49
0.0
140
0.0
141
0.0
142
1.0
143
0.1948717949
 70
   688
 72
     1
 73
     1
 74
     1
  7

 75
     0
147
5.1315789474
148
19.0
149
19.0
100
AcDbLayout
  1
_Dimetric
 70
     1
 71
     8
 10
0.0
 20
0.0
 11
0.0
 21
0.0
 12
0.0
 22
0.0
 32
0.0
 14
0.0
 24
0.0
 34
0.0
 15
0.0
 25
0.0
 35
0.0
146
0.0
 13
0.0
 23
0.0
 33
0.0
 16
1.0
 26
0.0
 36
0.0
 17
0.0
 27
1.0
 37
0.0
 76
     0
330
186
331
1B8
  0
LAYOUT
  5
147
102
{ACAD_REACTORS
330
1A
102
}
330
1A
100
AcDbPlotSettings
  1

  2
none_device
  4
ISO_A4_(210.00_x_297.00_MM)
  6

 40
7.5
 41
20.0
 42
7.5
 43
20.0
 44
210.0
 45
297.0
 46
0.0
 47
0.0
 48
0.0
 49
0.0
140
0.0
141
0.0
142
1.0
143
0.1948717949
 70
   688
 72
     1
 73
     1
 74
     1
  7

 75
     0
147
5.1315789474
148
19.0
149
19.0
100
AcDbLayout
  1
_Isometric
 70
     1
 71
     6
 10
0.0
 20
0.0
 11
0.0
 21
0.0
 12
0.0
 22
0.0
 32
0.0
 14
0.0
 24
0.0
 34
0.0
 15
0.0
 25
0.0
 35
0.0
146
0.0
 13
0.0
 23
0.0
 33
0.0
 16
1.0
 26
0.0
 36
0.0
 17
0.0
 27
1.0
 37
0.0
 76
     0
330
146
331
1B4
  0
LAYOUT
  5
10D
102
{ACAD_REACTORS
330
1A
102
}
330
1A
100
AcDbPlotSettings
  1

  2
none_device
  4
ISO_A4_(210.00_x_297.00_MM)
  6

 40
7.5
 41
20.0
 42
7.5
 43
20.0
 44
210.0
 45
297.0
 46
0.0
 47
0.0
 48
0.0
 49
0.0
140
0.0
141
0.0
142
1.0
143
0.1948717949
 70
   688
 72
     1
 73
     1
 74
     1
  7

 75
     0
147
5.1315789474
148
19.0
149
19.0
100
AcDbLayout
  1
_Left
 70
     1
 71
     4
 10
0.0
 20
0.0
 11
0.0
 21
0.0
 12
0.0
 22
0.0
 32
0.0
 14
0.0
 24
0.0
 34
0.0
 15
0.0
 25
0.0
 35
0.0
146
0.0
 13
0.0
 23
0.0
 33
0.0
 16
1.0
 26
0.0
 36
0.0
 17
0.0
 27
1.0
 37
0.0
 76
     0
330
10C
331
1B0
  0
LAYOUT
  5
26
102
{ACAD_REACTORS
330
1A
102
}
330
1A
100
AcDbPlotSettings
  1

  2
none_device
  4
ISO_A4_(210.00_x_297.00_MM)
  6

 40
7.5
 41
20.0
 42
7.5
 43
20.0
 44
210.0
 45
297.0
 46
0.0
 47
0.0
 48
0.0
 49
0.0
140
0.0
141
0.0
142
1.0
143
0.1948717949
 70
   688
 72
     1
 73
     1
 74
     1
  7

 75
     0
147
5.1315789474
148
19.0
149
19.0
100
AcDbLayout
  1
_Right
 70
     1
 71
     2
 10
0.0
 20
0.0
 11
0.0
 21
0.0
 12
0.0
 22
0.0
 32
0.0
 14
0.0
 24
0.0
 34
0.0
 15
0.0
 25
0.0
 35
0.0
146
0.0
 13
0.0
 23
0.0
 33
0.0
 16
1.0
 26
0.0
 36
0.0
 17
0.0
 27
1.0
 37
0.0
 76
     0
330
23
331
1AC
  0
LAYOUT
  5
1E
102
{ACAD_REACTORS
330
1A
102
}
330
1A
100
AcDbPlotSettings
  1

  2
none_device
  4
ISO_A4_(210.00_x_297.00_MM)
  6

 40
7.5
 41
20.0
 42
7.5
 43
20.0
 44
210.0
 45
297.0
 46
0.0
 47
0.0
 48
0.0
 49
0.0
140
0.0
141
0.0
142
1.0
143
0.1948717949
 70
   688
 72
     1
 73
     1
 74
     1
  7

 75
     0
147
5.1315789474
148
19.0
149
19.0
100
AcDbLayout
  1
_Top
 70
     1
 71
     1
 10
-22.8974358974
 20
-20.4615384615
 11
34.9794871795
 21
20.4615384615
 12
0.0
 22
0.0
 32
0.0
 14
-19.0
 24
-19.0
 34
0.0
 15
19.0
 25
19.0
 35
0.0
146
0.0
 13
0.0
 23
0.0
 33
0.0
 16
1.0
 26
0.0
 36
0.0
 17
0.0
 27
1.0
 37
0.0
 76
     0
330
1B
331
1AA
  0
LAYOUT
  5
166
102
{ACAD_REACTORS
330
1A
102
}
330
1A
100
AcDbPlotSettings
  1

  2
none_device
  4
ISO_A4_(210.00_x_297.00_MM)
  6

 40
7.5
 41
20.0
 42
7.5
 43
20.0
 44
210.0
 45
297.0
 46
0.0
 47
0.0
 48
0.0
 49
0.0
140
0.0
141
0.0
142
1.0
143
0.1948717949
 70
   688
 72
     1
 73
     1
 74
     1
  7

 75
     0
147
5.1315789474
148
19.0
149
19.0
100
AcDbLayout
  1
_Trimetric
 70
     1
 71
     7
 10
0.0
 20
0.0
 11
0.0
 21
0.0
 12
0.0
 22
0.0
 32
0.0
 14
0.0
 24
0.0
 34
0.0
 15
0.0
 25
0.0
 35
0.0
146
0.0
 13
0.0
 23
0.0
 33
0.0
 16
1.0
 26
0.0
 36
0.0
 17
0.0
 27
1.0
 37
0.0
 76
     0
330
165
331
1B6
  0
LAYOUT
  5
22
102
{ACAD_REACTORS
330
1A
102
}
330
1A
100
AcDbPlotSettings
  1

  2
none_device
  4
ANSI_A_(11.00_x_8.50_Inches)
  6

 40
6.35
 41
19.05
 42
6.35000508
 43
19.05000254
 44
279.4
 45
215.9
 46
133.34999746
 47
-5.7283696911
 48
0.0
 49
0.0
140
0.0
141
0.0
142
0.2865789474
143
1.0
 70
  1696
 72
     0
 73
     0
 74
     0
  7

 75
     0
147
0.0179189148
148
-1300.4909072572
149
0.0
100
AcDbLayout
  1
Model
 70
     1
 71
     0
 10
0.0
 20
0.0
 11
420.0
 21
297.0
 12
0.0
 22
0.0
 32
0.0
 14
-19.0
 24
0.0
 34
0.0
 15
19.0
 25
26.0
 35
0.0
146
0.0
 13
0.0
 23
0.0
 33
0.0
 16
1.0
 26
0.0
 36
0.0
 17
0.0
 27
1.0
 37
0.0
 76
     0
330
1F
331
29
  0
MLINESTYLE
  5
18
102
{ACAD_REACTORS
330
17
102
}
330
17
100
AcDbMlineStyle
  2
Standard
 70
     0
  3

 62
   256
 51
90.0
 52
90.0
 71
     2
 49
0.5
 62
   256
  6
BYLAYER
 49
-0.5
 62
   256
  6
BYLAYER
  0
ACDBPLACEHOLDER
  5
F
102
{ACAD_REACTORS
330
E
102
}
330
E
  0
SCALE
  5
48
102
{ACAD_REACTORS
330
47
102
}
330
47
100
AcDbScale
 70
     0
300
1:1
140
1.0
141
1.0
290
     1
  0
SCALE
  5
49
102
{ACAD_REACTORS
330
47
102
}
330
47
100
AcDbScale
 70
     0
300
1:2
140
1.0
141
2.0
290
     0
  0
SCALE
  5
4A
102
{ACAD_REACTORS
330
47
102
}
330
47
100
AcDbScale
 70
     0
300
1:4
140
1.0
141
4.0
290
     0
  0
SCALE
  5
4B
102
{ACAD_REACTORS
330
47
102
}
330
47
100
AcDbScale
 70
     0
300
1:5
140
1.0
141
5.0
290
     0
  0
SCALE
  5
4C
102
{ACAD_REACTORS
330
47
102
}
330
47
100
AcDbScale
 70
     0
300
1:8
140
1.0
141
8.0
290
     0
  0
SCALE
  5
4D
102
{ACAD_REACTORS
330
47
102
}
330
47
100
AcDbScale
 70
     0
300
1:10
140
1.0
141
10.0
290
     0
  0
SCALE
  5
4E
102
{ACAD_REACTORS
330
47
102
}
330
47
100
AcDbScale
 70
     0
300
1:16
140
1.0
141
16.0
290
     0
  0
SCALE
  5
4F
102
{ACAD_REACTORS
330
47
102
}
330
47
100
AcDbScale
 70
     0
300
1:20
140
1.0
141
20.0
290
     0
  0
SCALE
  5
50
102
{ACAD_REACTORS
330
47
102
}
330
47
100
AcDbScale
 70
     0
300
1:30
140
1.0
141
30.0
290
     0
  0
SCALE
  5
51
102
{ACAD_REACTORS
330
47
102
}
330
47
100
AcDbScale
 70
     0
300
1:40
140
1.0
141
40.0
290
     0
  0
SCALE
  5
52
102
{ACAD_REACTORS
330
47
102
}
330
47
100
AcDbScale
 70
     0
300
1:50
140
1.0
141
50.0
290
     0
  0
SCALE
  5
53
102
{ACAD_REACTORS
330
47
102
}
330
47
100
AcDbScale
 70
     0
300
1:100
140
1.0
141
100.0
290
     0
  0
SCALE
  5
54
102
{ACAD_REACTORS
330
47
102
}
330
47
100
AcDbScale
 70
     0
300
2:1
140
2.0
141
1.0
290
     0
  0
SCALE
  5
55
102
{ACAD_REACTORS
330
47
102
}
330
47
100
AcDbScale
 70
     0
300
4:1
140
4.0
141
1.0
290
     0
  0
SCALE
  5
56
102
{ACAD_REACTORS
330
47
102
}
330
47
100
AcDbScale
 70
     0
300
8:1
140
8.0
141
1.0
290
     0
  0
SCALE
  5
57
102
{ACAD_REACTORS
330
47
102
}
330
47
100
AcDbScale
 70
     0
300
10:1
140
10.0
141
1.0
290
     0
  0
SCALE
  5
58
102
{ACAD_REACTORS
330
47
102
}
330
47
100
AcDbScale
 70
     0
300
100:1
140
100.0
141
1.0
290
     0
  0
SCALE
  5
59
102
{ACAD_REACTORS
330
47
102
}
330
47
100
AcDbScale
 70
     0
300
1/128" = 1'-0"
140
0.0078125
141
12.0
290
     0
  0
SCALE
  5
5A
102
{ACAD_REACTORS
330
47
102
}
330
47
100
AcDbScale
 70
     0
300
1/64" = 1'-0"
140
0.015625
141
12.0
290
     0
  0
SCALE
  5
5B
102
{ACAD_REACTORS
330
47
102
}
330
47
100
AcDbScale
 70
     0
300
1/32" = 1'-0"
140
0.03125
141
12.0
290
     0
  0
SCALE
  5
5C
102
{ACAD_REACTORS
330
47
102
}
330
47
100
AcDbScale
 70
     0
300
1/16" = 1'-0"
140
0.0625
141
12.0
290
     0
  0
SCALE
  5
5D
102
{ACAD_REACTORS
330
47
102
}
330
47
100
AcDbScale
 70
     0
300
3/32" = 1'-0"
140
0.09375
141
12.0
290
     0
  0
SCALE
  5
5E
102
{ACAD_REACTORS
330
47
102
}
330
47
100
AcDbScale
 70
     0
300
1/8" = 1'-0"
140
0.125
141
12.0
290
     0
  0
SCALE
  5
5F
102
{ACAD_REACTORS
330
47
102
}
330
47
100
AcDbScale
 70
     0
300
3/16" = 1'-0"
140
0.1875
141
12.0
290
     0
  0
SCALE
  5
60
102
{ACAD_REACTORS
330
47
102
}
330
47
100
AcDbScale
 70
     0
300
1/4" = 1'-0"
140
0.25
141
12.0
290
     0
  0
SCALE
  5
61
102
{ACAD_REACTORS
330
47
102
}
330
47
100
AcDbScale
 70
     0
300
3/8" = 1'-0"
140
0.375
141
12.0
290
     0
  0
SCALE
  5
62
102
{ACAD_REACTORS
330
47
102
}
330
47
100
AcDbScale
 70
     0
300
1/2" = 1'-0"
140
0.5
141
12.0
290
     0
  0
SCALE
  5
63
102
{ACAD_REACTORS
330
47
102
}
330
47
100
AcDbScale
 70
     0
300
3/4" = 1'-0"
140
0.75
141
12.0
290
     0
  0
SCALE
  5
64
102
{ACAD_REACTORS
330
47
102
}
330
47
100
AcDbScale
 70
     0
300
1" = 1'-0"
140
1.0
141
12.0
290
     0
  0
SCALE
  5
65
102
{ACAD_REACTORS
330
47
102
}
330
47
100
AcDbScale
 70
     0
300
1-1/2" = 1'-0"
140
1.5
141
12.0
290
     0
  0
SCALE
  5
66
102
{ACAD_REACTORS
330
47
102
}
330
47
100
AcDbScale
 70
     0
300
3" = 1'-0"
140
3.0
141
12.0
290
     0
  0
SCALE
  5
67
102
{ACAD_REACTORS
330
47
102
}
330
47
100
AcDbScale
 70
     0
300
6" = 1'-0"
140
6.0
141
12.0
290
     0
  0
SCALE
  5
68
102
{ACAD_REACTORS
330
47
102
}
330
47
100
AcDbScale
 70
     0
300
1'-0" = 1'-0"
140
12.0
141
12.0
290
     0
  0
ENDSEC
  0
EOF
